  0
SECTION
  2
HEADER
  9
$ACADVER
  1
AC1015
  9
$ACADMAINTVER
 70
    20
  9
$DWGCODEPAGE
  3
ANSI_1252
  9
$INSBASE
 10
0.0
 20
0.0
 30
0.0
  9
$EXTMIN
 10
0.0208974289011295
 20
0.0212951159202515
 30
0.0
  9
$EXTMAX
 10
8.520897428901132
 20
11.02129511592025
 30
0.0
  9
$LIMMIN
 10
0.0282219718902752
 20
0.0212951159202533
  9
$LIMMAX
 10
8.520897428901125
 20
11.02129511592025
  9
$ORTHOMODE
 70
     1
  9
$REGENMODE
 70
     1
  9
$FILLMODE
 70
     1
  9
$QTEXTMODE
 70
     0
  9
$MIRRTEXT
 70
     1
  9
$LTSCALE
 40
1.0
  9
$ATTMODE
 70
     1
  9
$TEXTSIZE
 40
0.14
  9
$TRACEWID
 40
0.05
  9
$TEXTSTYLE
  7
SIMPLEX
  9
$CLAYER
  8
0
  9
$CELTYPE
  6
BYLAYER
  9
$CECOLOR
 62
   256
  9
$CELTSCALE
 40
1.0
  9
$DISPSILH
 70
     0
  9
$DIMSCALE
 40
0.0
  9
$DIMASZ
 40
0.18
  9
$DIMEXO
 40
0.0625
  9
$DIMDLI
 40
0.38
  9
$DIMRND
 40
0.0
  9
$DIMDLE
 40
0.0
  9
$DIMEXE
 40
0.08
  9
$DIMTP
 40
0.005
  9
$DIMTM
 40
0.005
  9
$DIMTXT
 40
0.18
  9
$DIMCEN
 40
0.0
  9
$DIMTSZ
 40
0.0
  9
$DIMTOL
 70
     0
  9
$DIMLIM
 70
     0
  9
$DIMTIH
 70
     1
  9
$DIMTOH
 70
     1
  9
$DIMSE1
 70
     0
  9
$DIMSE2
 70
     0
  9
$DIMTAD
 70
     0
  9
$DIMZIN
 70
     4
  9
$DIMBLK
  1

  9
$DIMASO
 70
     1
  9
$DIMSHO
 70
     1
  9
$DIMPOST
  1
\X
  9
$DIMAPOST
  1

  9
$DIMALT
 70
     1
  9
$DIMALTD
 70
     2
  9
$DIMALTF
 40
25.4
  9
$DIMLFAC
 40
1.0
  9
$DIMTOFL
 70
     0
  9
$DIMTVP
 40
0.0
  9
$DIMTIX
 70
     1
  9
$DIMSOXD
 70
     0
  9
$DIMSAH
 70
     0
  9
$DIMBLK1
  1

  9
$DIMBLK2
  1

  9
$DIMSTYLE
  2
3 plc dim
  9
$DIMCLRD
 70
   256
  9
$DIMCLRE
 70
   256
  9
$DIMCLRT
 70
   256
  9
$DIMTFAC
 40
1.0
  9
$DIMGAP
 40
0.09
  9
$DIMJUST
 70
     0
  9
$DIMSD1
 70
     0
  9
$DIMSD2
 70
     0
  9
$DIMTOLJ
 70
     1
  9
$DIMTZIN
 70
     0
  9
$DIMALTZ
 70
     0
  9
$DIMALTTZ
 70
     0
  9
$DIMUPT
 70
     0
  9
$DIMDEC
 70
     3
  9
$DIMTDEC
 70
     3
  9
$DIMALTU
 70
     2
  9
$DIMALTTD
 70
     2
  9
$DIMTXSTY
  7
SIMPLEX
  9
$DIMAUNIT
 70
     0
  9
$DIMADEC
 70
     0
  9
$DIMALTRND
 40
0.0
  9
$DIMAZIN
 70
     1
  9
$DIMDSEP
 70
    46
  9
$DIMATFIT
 70
     3
  9
$DIMFRAC
 70
     0
  9
$DIMLDRBLK
  1

  9
$DIMLUNIT
 70
     3
  9
$DIMLWD
 70
    -2
  9
$DIMLWE
 70
    -2
  9
$DIMTMOVE
 70
     0
  9
$LUNITS
 70
     2
  9
$LUPREC
 70
     4
  9
$SKETCHINC
 40
0.1
  9
$FILLETRAD
 40
0.1
  9
$AUNITS
 70
     0
  9
$AUPREC
 70
     0
  9
$MENU
  1
acad
  9
$ELEVATION
 40
0.0
  9
$PELEVATION
 40
0.0
  9
$THICKNESS
 40
0.0
  9
$LIMCHECK
 70
     0
  9
$CHAMFERA
 40
0.08
  9
$CHAMFERB
 40
0.08
  9
$CHAMFERC
 40
0.0
  9
$CHAMFERD
 40
0.0
  9
$SKPOLY
 70
     0
  9
$TDCREATE
 40
2449371.614251504
  9
$TDUCREATE
 40
2449371.905918171
  9
$TDUPDATE
 40
2457941.521346702
  9
$TDUUPDATE
 40
2457941.813013369
  9
$TDINDWG
 40
2.8942566551
  9
$TDUSRTIMER
 40
2.8942566551
  9
$USRTIMER
 70
     1
  9
$ANGBASE
 50
0.0
  9
$ANGDIR
 70
     0
  9
$PDMODE
 70
     0
  9
$PDSIZE
 40
0.0
  9
$PLINEWID
 40
0.025
  9
$SPLFRAME
 70
     0
  9
$SPLINETYPE
 70
     6
  9
$SPLINESEGS
 70
     8
  9
$HANDSEED
  5
297EE
  9
$SURFTAB1
 70
     6
  9
$SURFTAB2
 70
     6
  9
$SURFTYPE
 70
     6
  9
$SURFU
 70
     6
  9
$SURFV
 70
     6
  9
$UCSBASE
  2

  9
$UCSNAME
  2

  9
$UCSORG
 10
0.0
 20
0.0
 30
0.0
  9
$UCSXDIR
 10
1.0
 20
0.0
 30
0.0
  9
$UCSYDIR
 10
0.0
 20
1.0
 30
0.0
  9
$UCSORTHOREF
  2

  9
$UCSORTHOVIEW
 70
     0
  9
$UCSORGTOP
 10
0.0
 20
0.0
 30
0.0
  9
$UCSORGBOTTOM
 10
0.0
 20
0.0
 30
0.0
  9
$UCSORGLEFT
 10
0.0
 20
0.0
 30
0.0
  9
$UCSORGRIGHT
 10
0.0
 20
0.0
 30
0.0
  9
$UCSORGFRONT
 10
0.0
 20
0.0
 30
0.0
  9
$UCSORGBACK
 10
0.0
 20
0.0
 30
0.0
  9
$PUCSBASE
  2

  9
$PUCSNAME
  2

  9
$PUCSORG
 10
0.0
 20
0.0
 30
0.0
  9
$PUCSXDIR
 10
1.0
 20
0.0
 30
0.0
  9
$PUCSYDIR
 10
0.0
 20
1.0
 30
0.0
  9
$PUCSORTHOREF
  2

  9
$PUCSORTHOVIEW
 70
     0
  9
$PUCSORGTOP
 10
0.0
 20
0.0
 30
0.0
  9
$PUCSORGBOTTOM
 10
0.0
 20
0.0
 30
0.0
  9
$PUCSORGLEFT
 10
0.0
 20
0.0
 30
0.0
  9
$PUCSORGRIGHT
 10
0.0
 20
0.0
 30
0.0
  9
$PUCSORGFRONT
 10
0.0
 20
0.0
 30
0.0
  9
$PUCSORGBACK
 10
0.0
 20
0.0
 30
0.0
  9
$USERI1
 70
     0
  9
$USERI2
 70
     0
  9
$USERI3
 70
     0
  9
$USERI4
 70
     0
  9
$USERI5
 70
     0
  9
$USERR1
 40
0.0
  9
$USERR2
 40
0.0
  9
$USERR3
 40
0.0
  9
$USERR4
 40
0.0
  9
$USERR5
 40
0.0
  9
$WORLDVIEW
 70
     1
  9
$SHADEDGE
 70
     3
  9
$SHADEDIF
 70
    70
  9
$TILEMODE
 70
     1
  9
$MAXACTVP
 70
    16
  9
$PINSBASE
 10
0.0
 20
0.0
 30
0.0
  9
$PLIMCHECK
 70
     0
  9
$PEXTMIN
 10
1.000000000000000E+20
 20
1.000000000000000E+20
 30
1.000000000000000E+20
  9
$PEXTMAX
 10
-1.000000000000000E+20
 20
-1.000000000000000E+20
 30
-1.000000000000000E+20
  9
$PLIMMIN
 10
0.0
 20
0.0
  9
$PLIMMAX
 10
12.0
 20
9.0
  9
$UNITMODE
 70
     0
  9
$VISRETAIN
 70
     0
  9
$PLINEGEN
 70
     0
  9
$PSLTSCALE
 70
     1
  9
$TREEDEPTH
 70
  3020
  9
$CMLSTYLE
  2
STANDARD
  9
$CMLJUST
 70
     0
  9
$CMLSCALE
 40
1.0
  9
$PROXYGRAPHICS
 70
     1
  9
$MEASUREMENT
 70
     0
  9
$CELWEIGHT
370
    -1
  9
$ENDCAPS
280
     0
  9
$JOINSTYLE
280
     0
  9
$LWDISPLAY
290
     0
  9
$INSUNITS
 70
     0
  9
$HYPERLINKBASE
  1

  9
$STYLESHEET
  1
monochrome.ctb
  9
$XEDIT
290
     1
  9
$CEPSNTYPE
380
     0
  9
$PSTYLEMODE
290
     1
  9
$FINGERPRINTGUID
  2
{F09D44C5-AD4A-11D3-B8FE-009027244A7B}
  9
$VERSIONGUID
  2
{45DAE989-F625-48EE-A18F-D5DEBA174A0B}
  9
$EXTNAMES
290
     1
  9
$PSVPSCALE
 40
0.0
  9
$OLESTARTUP
290
     0
  0
ENDSEC
  0
SECTION
  2
CLASSES
  0
CLASS
  1
DICTIONARYVAR
  2
AcDbDictionaryVar
  3
ObjectDBX Classes
 90
        0
280
     0
281
     0
  0
CLASS
  1
ACDBDICTIONARYWDFLT
  2
AcDbDictionaryWithDefault
  3
ObjectDBX Classes
 90
        0
280
     0
281
     0
  0
CLASS
  1
ACDBPLACEHOLDER
  2
AcDbPlaceHolder
  3
ObjectDBX Classes
 90
        0
280
     0
281
     0
  0
CLASS
  1
LAYOUT
  2
AcDbLayout
  3
ObjectDBX Classes
 90
        0
280
     0
281
     0
  0
CLASS
  1
MATERIAL
  2
AcDbMaterial
  3
ObjectDBX Classes
 90
     1153
280
     0
281
     0
  0
CLASS
  1
VISUALSTYLE
  2
AcDbVisualStyle
  3
ObjectDBX Classes
 90
     4095
280
     0
281
     0
  0
CLASS
  1
TABLESTYLE
  2
AcDbTableStyle
  3
ObjectDBX Classes
 90
     4095
280
     0
281
     0
  0
CLASS
  1
SCALE
  2
AcDbScale
  3
ObjectDBX Classes
 90
     1153
280
     0
281
     0
  0
CLASS
  1
MLEADERSTYLE
  2
AcDbMLeaderStyle
  3
ACDB_MLEADERSTYLE_CLASS
 90
     4095
280
     0
281
     0
  0
CLASS
  1
SORTENTSTABLE
  2
AcDbSortentsTable
  3
ObjectDBX Classes
 90
    32768
280
     0
281
     0
  0
CLASS
  1
CELLSTYLEMAP
  2
AcDbCellStyleMap
  3
ObjectDBX Classes
 90
     1152
280
     0
281
     0
  0
ENDSEC
  0
SECTION
  2
TABLES
  0
TABLE
  2
VPORT
  5
8
330
0
100
AcDbSymbolTable
 70
     1
  0
VPORT
  5
2940E
330
8
100
AcDbSymbolTableRecord
100
AcDbViewportTableRecord
  2
*Active
 70
     0
 10
0.0
 20
0.0
 11
1.0
 21
1.0
 12
2.858168429095229
 22
4.247255321812064
 13
0.0
 23
0.0
 14
0.5
 24
0.5
 15
0.5
 25
0.5
 16
0.0
 26
0.0
 36
1.0
 17
0.0
 27
0.0
 37
0.0
 40
16.93931763195881
 41
1.974042027194066
 42
50.0
 43
0.0
 44
0.0
 50
0.0
 51
0.0
 71
     0
 72
   100
 73
     1
 74
     0
 75
     0
 76
     0
 77
     0
 78
     0
281
     0
 65
     1
110
0.0
120
0.0
130
0.0
111
1.0
121
0.0
131
0.0
112
0.0
122
1.0
132
0.0
 79
     0
146
0.0
1001
ACAD_NAV_VCDISPLAY
1070
     3
  0
ENDTAB
  0
TABLE
  2
LTYPE
  5
5
330
0
100
AcDbSymbolTable
 70
     4
  0
LTYPE
  5
12
330
5
100
AcDbSymbolTableRecord
100
AcDbLinetypeTableRecord
  2
BYBLOCK
 70
     0
  3

 72
    65
 73
     0
 40
0.0
  0
LTYPE
  5
13
330
5
100
AcDbSymbolTableRecord
100
AcDbLinetypeTableRecord
  2
BYLAYER
 70
     0
  3

 72
    65
 73
     0
 40
0.0
  0
LTYPE
  5
14
330
5
100
AcDbSymbolTableRecord
100
AcDbLinetypeTableRecord
  2
CONTINUOUS
 70
     0
  3
Solid line
 72
    65
 73
     0
 40
0.0
  0
LTYPE
  5
167A3
330
5
100
AcDbSymbolTableRecord
100
AcDbLinetypeTableRecord
  2
HIDDEN2
 70
     0
  3
_ _ _ _ _ _ _ _ _ _ _ _ _ _ _ _ _ _ _ _ _ _ _ _
 72
    65
 73
     2
 40
0.1875
 49
0.125
 74
     0
 49
-0.0625
 74
     0
  0
LTYPE
  5
29065
330
5
100
AcDbSymbolTableRecord
100
AcDbLinetypeTableRecord
  2
ACAD_ISO07W100
 70
     0
  3
ISO dot . . . . . . . . . . . . . . . . . . . .
 72
    65
 73
     2
 40
3.0
 49
0.0
 74
     0
 49
-3.0
 74
     0
  0
LTYPE
  5
295CF
330
5
100
AcDbSymbolTableRecord
100
AcDbLinetypeTableRecord
  2
HIDDEN
 70
     0
  3
Hidden __ __ __ __ __ __ __ __ __ __ __ __ __ _
 72
    65
 73
     2
 40
0.375
 49
0.25
 74
     0
 49
-0.125
 74
     0
  0
ENDTAB
  0
TABLE
  2
LAYER
  5
2
102
{ACAD_XDICTIONARY
360
29062
102
}
330
0
100
AcDbSymbolTable
 70
     5
  0
LAYER
  5
F
102
{ACAD_XDICTIONARY
360
2946A
102
}
330
2
100
AcDbSymbolTableRecord
100
AcDbLayerTableRecord
  2
0
 70
     0
 62
     7
  6
CONTINUOUS
370
    -3
390
165D0
  0
LAYER
  5
C9
102
{ACAD_XDICTIONARY
360
2946C
102
}
330
2
100
AcDbSymbolTableRecord
100
AcDbLayerTableRecord
  2
TITLE
 70
     4
 62
     5
  6
CONTINUOUS
290
     0
370
    18
390
165D0
  0
LAYER
  5
139D3
330
2
100
AcDbSymbolTableRecord
100
AcDbLayerTableRecord
  2
DEFPOINTS
 70
     0
 62
     7
  6
CONTINUOUS
290
     0
370
    -3
390
165D0
  0
LAYER
  5
167A5
102
{ACAD_XDICTIONARY
360
2946E
102
}
330
2
100
AcDbSymbolTableRecord
100
AcDbLayerTableRecord
  2
DIMENSION
 70
     0
 62
     3
  6
CONTINUOUS
370
    13
390
165D0
  0
LAYER
  5
167A9
102
{ACAD_XDICTIONARY
360
29470
102
}
330
2
100
AcDbSymbolTableRecord
100
AcDbLayerTableRecord
  2
HIDDEN
 70
     0
 62
     5
  6
HIDDEN2
370
    18
390
165D0
  0
ENDTAB
  0
TABLE
  2
STYLE
  5
3
330
0
100
AcDbSymbolTable
 70
     4
  0
STYLE
  5
10
330
3
100
AcDbSymbolTableRecord
100
AcDbTextStyleTableRecord
  2
STANDARD
 70
     0
 40
0.0
 41
1.0
 50
0.0
 71
     0
 42
0.2
  3
txt
  4

  0
STYLE
  5
AB
330
3
100
AcDbSymbolTableRecord
100
AcDbTextStyleTableRecord
  2
SIMPLEX
 70
     0
 40
0.0
 41
1.0
 50
0.0
 71
     0
 42
0.14
  3
simplex.shx
  4

  0
STYLE
  5
29066
330
3
100
AcDbSymbolTableRecord
100
AcDbTextStyleTableRecord
  2
ROMANS
 70
     0
 40
0.0
 41
1.0
 50
0.0
 71
     0
 42
0.15
  3
romans
  4

  0
STYLE
  5
29067
330
3
100
AcDbSymbolTableRecord
100
AcDbTextStyleTableRecord
  2
ROMANT
 70
     0
 40
0.0
 41
1.0
 50
0.0
 71
     0
 42
0.14
  3
romant.shx
  4

  0
ENDTAB
  0
TABLE
  2
VIEW
  5
6
330
0
100
AcDbSymbolTable
 70
     0
  0
ENDTAB
  0
TABLE
  2
UCS
  5
7
330
0
100
AcDbSymbolTable
 70
     0
  0
ENDTAB
  0
TABLE
  2
APPID
  5
9
330
0
100
AcDbSymbolTable
 70
     9
  0
APPID
  5
11
330
9
100
AcDbSymbolTableRecord
100
AcDbRegAppTableRecord
  2
ACAD
 70
     0
  0
APPID
  5
13447
330
9
100
AcDbSymbolTableRecord
100
AcDbRegAppTableRecord
  2
CONTENTBLOCKICON
 70
     0
  0
APPID
  5
138DE
330
9
100
AcDbSymbolTableRecord
100
AcDbRegAppTableRecord
  2
CONTENTTABDATA
 70
     0
  0
APPID
  5
138DF
330
9
100
AcDbSymbolTableRecord
100
AcDbRegAppTableRecord
  2
CONTENTCURRENTTAB
 70
     0
  0
APPID
  5
138E1
330
9
100
AcDbSymbolTableRecord
100
AcDbRegAppTableRecord
  2
CONTENTBLOCKDESCRIPTION
 70
     0
  0
APPID
  5
29468
330
9
100
AcDbSymbolTableRecord
100
AcDbRegAppTableRecord
  2
ACAD_EXEMPT_FROM_CAD_STANDARDS
 70
     0
  0
APPID
  5
2947C
330
9
100
AcDbSymbolTableRecord
100
AcDbRegAppTableRecord
  2
ACAD_NAV_VCDISPLAY
 70
     0
  0
APPID
  5
29602
330
9
100
AcDbSymbolTableRecord
100
AcDbRegAppTableRecord
  2
ACAD_DSTYLE_DIMRADIAL_EXTENSION
 70
     0
  0
APPID
  5
297ED
330
9
100
AcDbSymbolTableRecord
100
AcDbRegAppTableRecord
  2
ACAD_MLEADERVER
 70
     0
  0
ENDTAB
  0
TABLE
  2
DIMSTYLE
  5
A
330
0
100
AcDbSymbolTable
 70
     2
100
AcDbDimStyleTable
 71
     2
340
165EE
340
901
  0
DIMSTYLE
105
901
330
A
100
AcDbSymbolTableRecord
100
AcDbDimStyleTableRecord
  2
STANDARD
 70
     0
340
10
  0
DIMSTYLE
105
165EE
330
A
100
AcDbSymbolTableRecord
100
AcDbDimStyleTableRecord
  2
3 plc dim
 70
     0
 40
0.0
 45
0.01
 47
0.005
 48
0.005
141
-0.05
174
     1
176
   256
177
   256
178
   256
271
     3
272
     3
340
AB
  0
ENDTAB
  0
TABLE
  2
BLOCK_RECORD
  5
1
330
0
100
AcDbSymbolTable
 70
     0
  0
BLOCK_RECORD
  5
18
330
1
100
AcDbSymbolTableRecord
100
AcDbBlockTableRecord
  2
*MODEL_SPACE
340
165D3
  0
BLOCK_RECORD
  5
15
330
1
100
AcDbSymbolTableRecord
100
AcDbBlockTableRecord
  2
*PAPER_SPACE
340
165D4
  0
ENDTAB
  0
ENDSEC
  0
SECTION
  2
BLOCKS
  0
BLOCK
  5
D2
330
18
100
AcDbEntity
  8
0
100
AcDbBlockBegin
  2
*MODEL_SPACE
 70
     0
 10
0.0
 20
0.0
 30
0.0
  3
*MODEL_SPACE
  1

  0
ENDBLK
  5
D3
330
18
100
AcDbEntity
  8
0
100
AcDbBlockEnd
  0
BLOCK
  5
D0
330
15
100
AcDbEntity
 67
     1
  8
0
100
AcDbBlockBegin
  2
*PAPER_SPACE
 70
     0
 10
0.0
 20
0.0
 30
0.0
  3
*PAPER_SPACE
  1

  0
ENDBLK
  5
D1
330
15
100
AcDbEntity
 67
     1
  8
0
100
AcDbBlockEnd
  0
ENDSEC
  0
SECTION
  2
ENTITIES
  0
MTEXT
  5
18500
330
18
100
AcDbEntity
  8
DIMENSION
100
AcDbMText
 10
56.84959916162816
 20
7.915833144220382
 30
0.0
 40
0.25
 41
0.0
 71
     1
 72
     1
  1

  7
SIMPLEX
 73
     1
 44
1.0
1001
ACAD
1000
MTEXTBEGIN
1070
    73
1070
     1
1070
    44
1040
1.0
1070
    74
1070
     0
1000
MTEXTEND
  0
MTEXT
  5
18508
330
18
100
AcDbEntity
  8
DIMENSION
100
AcDbMText
 10
50.57431035973983
 20
7.329449959165447
 30
0.0
 40
0.25
 41
0.0
 71
     9
 72
     1
  1

  7
SIMPLEX
 73
     1
 44
1.0
1001
ACAD
1000
MTEXTBEGIN
1070
    73
1070
     1
1070
    44
1040
1.0
1070
    74
1070
     0
1000
MTEXTEND
  0
MTEXT
  5
18539
330
18
100
AcDbEntity
  8
DIMENSION
100
AcDbMText
 10
56.99508823148164
 20
13.49829507367549
 30
0.0
 40
0.25
 41
0.0
 71
     1
 72
     1
  1

  7
SIMPLEX
 73
     1
 44
1.0
1001
ACAD
1000
MTEXTBEGIN
1070
    73
1070
     1
1070
    44
1040
1.0
1070
    74
1070
     0
1000
MTEXTEND
  0
MTEXT
  5
1854B
330
18
100
AcDbEntity
  8
DIMENSION
100
AcDbMText
 10
50.35929819352999
 20
13.45479790225773
 30
0.0
 40
0.25
 41
0.0
 71
     9
 72
     1
  1

  7
SIMPLEX
 73
     1
 44
1.0
1001
ACAD
1000
MTEXTBEGIN
1070
    73
1070
     1
1070
    44
1040
1.0
1070
    74
1070
     0
1000
MTEXTEND
  0
MTEXT
  5
1854D
330
18
100
AcDbEntity
  8
DIMENSION
100
AcDbMText
 10
50.37220589195107
 20
13.78371825835966
 30
0.0
 40
0.25
 41
0.0
 71
     9
 72
     1
  1

  7
SIMPLEX
 73
     1
 44
1.0
1001
ACAD
1000
MTEXTBEGIN
1070
    73
1070
     1
1070
    44
1040
1.0
1070
    74
1070
     0
1000
MTEXTEND
  0
MTEXT
  5
1855E
330
18
100
AcDbEntity
  8
DIMENSION
100
AcDbMText
 10
52.3162937380203
 20
16.45639987289734
 30
0.0
 40
0.25
 41
0.0
 71
     1
 72
     1
  1

  7
SIMPLEX
 73
     1
 44
1.0
1001
ACAD
1000
MTEXTBEGIN
1070
    73
1070
     1
1070
    44
1040
1.0
1070
    74
1070
     0
1000
MTEXTEND
  0
MTEXT
  5
18D06
330
18
100
AcDbEntity
  8
DIMENSION
100
AcDbMText
 10
15.33543021575659
 20
27.33884838928724
 30
0.0
 40
0.25
 41
0.0
 71
     9
 72
     1
  1

  7
SIMPLEX
 73
     1
 44
1.0
1001
ACAD
1000
MTEXTBEGIN
1070
    73
1070
     1
1070
    44
1040
1.0
1070
    74
1070
     0
1000
MTEXTEND
  0
MTEXT
  5
18DBF
330
18
100
AcDbEntity
  8
DIMENSION
100
AcDbMText
 10
14.52067685660489
 20
23.4884392103478
 30
0.0
 40
0.25
 41
0.0
 71
     1
 72
     1
  1

  7
SIMPLEX
 73
     1
 44
1.0
1001
ACAD
1000
MTEXTBEGIN
1070
    73
1070
     1
1070
    44
1040
1.0
1070
    74
1070
     0
1000
MTEXTEND
  0
MTEXT
  5
18F35
330
18
100
AcDbEntity
  8
HIDDEN
370
     9
100
AcDbMText
 10
20.36697498394904
 20
38.25613068020407
 30
0.0
 40
0.25
 41
0.0
 71
     1
 72
     1
  1

  7
SIMPLEX
 73
     1
 44
1.0
1001
ACAD
1000
MTEXTBEGIN
1070
    73
1070
     1
1070
    44
1040
1.0
1070
    74
1070
     0
1000
MTEXTEND
  0
MTEXT
  5
197A2
330
18
100
AcDbEntity
  8
HIDDEN
370
     9
100
AcDbMText
 10
50.42644761080665
 20
39.23020268761083
 30
0.0
 40
0.25
 41
0.0
 71
     9
 72
     1
  1

  7
SIMPLEX
 73
     1
 44
1.0
1001
ACAD
1000
MTEXTBEGIN
1070
    73
1070
     1
1070
    44
1040
1.0
1070
    74
1070
     0
1000
MTEXTEND
  0
MTEXT
  5
197A7
330
18
100
AcDbEntity
  8
HIDDEN
370
     9
100
AcDbMText
 10
52.13407327448077
 20
35.92601391536574
 30
0.0
 40
0.25
 41
0.0
 71
     1
 72
     1
  1

  7
SIMPLEX
 73
     1
 44
1.0
1001
ACAD
1000
MTEXTBEGIN
1070
    73
1070
     1
1070
    44
1040
1.0
1070
    74
1070
     0
1000
MTEXTEND
  0
MTEXT
  5
1984A
330
18
100
AcDbEntity
  8
DIMENSION
100
AcDbMText
 10
47.69073126280193
 20
34.64731676005309
 30
0.0
 40
0.25
 41
0.0
 71
     1
 72
     1
  1

  7
SIMPLEX
 73
     1
 44
1.0
1001
ACAD
1000
MTEXTBEGIN
1070
    73
1070
     1
1070
    44
1040
1.0
1070
    74
1070
     0
1000
MTEXTEND
  0
MTEXT
  5
198EC
330
18
100
AcDbEntity
  8
DIMENSION
100
AcDbMText
 10
50.24651058710002
 20
32.50242814199161
 30
0.0
 40
0.25
 41
0.0
 71
     9
 72
     1
  1

  7
SIMPLEX
 73
     1
 44
1.0
1001
ACAD
1000
MTEXTBEGIN
1070
    73
1070
     1
1070
    44
1040
1.0
1070
    74
1070
     0
1000
MTEXTEND
  0
MTEXT
  5
1993A
330
18
100
AcDbEntity
  8
DIMENSION
100
AcDbMText
 10
58.02115694389015
 20
38.57903108478078
 30
0.0
 40
0.25
 41
0.0
 71
     1
 72
     1
  1

  7
SIMPLEX
 73
     1
 44
1.0
1001
ACAD
1000
MTEXTBEGIN
1070
    73
1070
     1
1070
    44
1040
1.0
1070
    74
1070
     0
1000
MTEXTEND
  0
MTEXT
  5
19971
330
18
100
AcDbEntity
  8
DIMENSION
100
AcDbMText
 10
52.74047200405972
 20
34.9191000862525
 30
0.0
 40
0.25
 41
0.0
 71
     1
 72
     1
  1

  7
SIMPLEX
 73
     1
 44
1.0
1001
ACAD
1000
MTEXTBEGIN
1070
    73
1070
     1
1070
    44
1040
1.0
1070
    74
1070
     0
1000
MTEXTEND
  0
MTEXT
  5
1C20E
330
18
100
AcDbEntity
  8
DIMENSION
100
AcDbMText
 10
45.25728739213408
 20
18.30197528865155
 30
0.0
 40
0.14
 41
0.0
 71
     1
 72
     1
  1

  7
SIMPLEX
 73
     1
 44
1.0
1001
ACAD
1000
MTEXTBEGIN
1070
    73
1070
     1
1070
    44
1040
1.0
1070
    74
1070
     0
1000
MTEXTEND
  0
MTEXT
  5
1C76F
330
18
100
AcDbEntity
  8
DIMENSION
100
AcDbMText
 10
29.56582892685009
 20
31.4039200434291
 30
0.0
 40
0.14
 41
0.0
 71
     1
 72
     1
  1

  7
SIMPLEX
 73
     1
 44
1.0
1001
ACAD
1000
MTEXTBEGIN
1070
    73
1070
     1
1070
    44
1040
1.0
1070
    74
1070
     0
1000
MTEXTEND
  0
MTEXT
  5
1D5DB
330
18
100
AcDbEntity
  8
DIMENSION
100
AcDbMText
 10
8.946021644105641
 20
14.97341101121118
 30
0.0
 40
0.14
 41
0.0
 71
     9
 72
     1
  1

  7
SIMPLEX
 73
     1
 44
1.0
1001
ACAD
1000
MTEXTBEGIN
1070
    73
1070
     1
1070
    44
1040
1.0
1070
    74
1070
     0
1000
MTEXTEND
  0
MTEXT
  5
1D618
330
18
100
AcDbEntity
  8
DIMENSION
100
AcDbMText
 10
9.002511196056623
 20
15.18331188632932
 30
0.0
 40
0.14
 41
0.0
 71
     9
 72
     1
  1

  7
SIMPLEX
 73
     1
 44
1.0
1001
ACAD
1000
MTEXTBEGIN
1070
    73
1070
     1
1070
    44
1040
1.0
1070
    74
1070
     0
1000
MTEXTEND
  0
MTEXT
  5
1D61E
330
18
100
AcDbEntity
  8
DIMENSION
100
AcDbMText
 10
9.002511196056623
 20
15.18331188632932
 30
0.0
 40
0.14
 41
0.0
 71
     9
 72
     1
  1

  7
SIMPLEX
 73
     1
 44
1.0
1001
ACAD
1000
MTEXTBEGIN
1070
    73
1070
     1
1070
    44
1040
1.0
1070
    74
1070
     0
1000
MTEXTEND
  0
MTEXT
  5
1E3BB
330
18
100
AcDbEntity
  8
DIMENSION
100
AcDbMText
 10
43.23136811447755
 20
13.2986715582167
 30
0.0
 40
0.14
 41
0.0
 71
     9
 72
     1
  1

  7
SIMPLEX
 73
     1
 44
1.0
1001
ACAD
1000
MTEXTBEGIN
1070
    73
1070
     1
1070
    44
1040
1.0
1070
    74
1070
     0
1000
MTEXTEND
  0
MTEXT
  5
1E460
330
18
100
AcDbEntity
  8
DIMENSION
100
AcDbMText
 10
49.58027084590124
 20
17.80483580664516
 30
0.0
 40
0.14
 41
0.0
 71
     1
 72
     1
  1

  7
SIMPLEX
 73
     1
 44
1.0
1001
ACAD
1000
MTEXTBEGIN
1070
    73
1070
     1
1070
    44
1040
1.0
1070
    74
1070
     0
1000
MTEXTEND
  0
MTEXT
  5
1F6D6
330
18
100
AcDbEntity
  8
DIMENSION
100
AcDbMText
 10
46.72784334858294
 20
30.29707759325918
 30
0.0
 40
0.128630329335528
 41
0.0
 71
     9
 72
     1
  1

  7
SIMPLEX
 73
     1
 44
1.0
1001
ACAD
1000
MTEXTBEGIN
1070
    73
1070
     1
1070
    44
1040
1.0
1070
    74
1070
     0
1000
MTEXTEND
  0
MTEXT
  5
20C2F
330
18
100
AcDbEntity
  8
DIMENSION
100
AcDbMText
 10
-21.27215663754641
 20
30.29707759025417
 30
0.0
 40
0.128630329335528
 41
0.0
 71
     9
 72
     1
  1

  7
SIMPLEX
 73
     1
 44
1.0
1001
ACAD
1000
MTEXTBEGIN
1070
    73
1070
     1
1070
    44
1040
1.0
1070
    74
1070
     0
1000
MTEXTEND
  0
MTEXT
  5
21C05
330
18
100
AcDbEntity
  8
DIMENSION
100
AcDbMText
 10
66.93567503676689
 20
55.41745640404148
 30
0.0
 40
0.128630329335528
 41
0.0
 71
     9
 72
     1
  1

  7
SIMPLEX
 73
     1
 44
1.0
1001
ACAD
1000
MTEXTBEGIN
1070
    73
1070
     1
1070
    44
1040
1.0
1070
    74
1070
     0
1000
MTEXTEND
  0
MTEXT
  5
21C66
330
18
100
AcDbEntity
  8
DIMENSION
100
AcDbMText
 10
63.55680539578292
 20
58.84886331017053
 30
0.0
 40
0.25
 41
0.22
 71
     9
 72
     1
  1

  7
SIMPLEX
 73
     1
 44
1.0
1001
ACAD
1000
MTEXTBEGIN
1070
    73
1070
     1
1070
    44
1040
1.0
1070
    74
1070
     0
1000
MTEXTEND
  0
MTEXT
  5
27E0F
330
18
100
AcDbEntity
  8
DIMENSION
100
AcDbMText
 10
16.20230097671705
 20
16.43285535504027
 30
0.0
 40
0.14
 41
0.0
 71
     1
 72
     1
  1

  7
SIMPLEX
 73
     1
 44
1.0
1001
ACAD
1000
MTEXTBEGIN
1070
    73
1070
     1
1070
    44
1040
1.0
1070
    74
1070
     0
1000
MTEXTEND
  0
LINE
  5
29172
330
18
100
AcDbEntity
  8
0
100
AcDbLine
 10
2.30239742890113
 20
8.198160776226378
 30
0.0
 11
6.239397428901117
 21
8.198160776226378
 31
0.0
  0
MTEXT
  5
29175
330
18
100
AcDbEntity
  8
0
100
AcDbMText
 10
4.321612964898523
 20
2.154882054970553
 30
0.0
 40
0.1
 41
3.043
 71
     1
 72
     5
  1
{\fArial Narrow|b1|i0|c0|p34;ALTINEX, INC. MODEL NUMBERS:}
  7
ROMANT
 73
     1
 44
1.0
1001
ACAD
1000
MTEXTBEGIN
1070
    73
1070
     1
1070
    44
1040
1.0
1070
    74
1070
     0
1000
MTEXTEND
  0
MTEXT
  5
29176
330
18
100
AcDbEntity
  8
0
100
AcDbMText
 10
4.268729987103452
 20
1.126763623812655
 30
0.0
 40
0.28
 41
7.928999999999999
 71
     2
 72
     5
  1
{\fArial|b1|i0|c0|p34;1. STOP          2. MEASURE           3. CUT}
  7
ROMANT
 73
     1
 44
1.0
1001
ACAD
1000
MTEXTBEGIN
1070
    73
1070
     1
1070
    44
1040
1.0
1070
    74
1070
     0
1000
MTEXTEND
  0
MTEXT
  5
29177
330
18
100
AcDbEntity
  8
0
100
AcDbMText
 10
4.269729987103453
 20
10.68349080550435
 30
0.0
 40
0.28
 41
7.928999999999999
 71
     2
 72
     5
  1
{\fArial|b1|i0|c0|p34;1. STOP          2. MEASURE           3. CUT}
  7
ROMANT
 73
     1
 44
1.0
1001
ACAD
1000
MTEXTBEGIN
1070
    73
1070
     1
1070
    44
1040
1.0
1070
    74
1070
     0
1000
MTEXTEND
  0
LINE
  5
29178
102
{ACAD_REACTORS
330
29346
102
}
330
18
100
AcDbEntity
  8
TITLE
  6
ACAD_ISO07W100
 48
0.05
100
AcDbLine
 10
8.020897428901132
 20
0.7212951159202508
 30
0.0
 11
0.5208974289011295
 21
0.7212951159202508
 31
0.0
  0
LINE
  5
29179
102
{ACAD_REACTORS
330
29346
102
}
330
18
100
AcDbEntity
  8
TITLE
  6
ACAD_ISO07W100
 48
0.05
100
AcDbLine
 10
0.5208974289011295
 20
10.32129511592025
 30
0.0
 11
8.020897428901132
 21
10.32129511592025
 31
0.0
  0
LINE
  5
2917A
102
{ACAD_REACTORS
330
2976E
102
}
330
18
100
AcDbEntity
  8
0
100
AcDbLine
 10
2.270897428901125
 20
8.618976320811297
 30
0.0
 11
6.270897428901125
 21
8.618976320811297
 31
0.0
  0
LINE
  5
2917B
330
18
100
AcDbEntity
  8
0
100
AcDbLine
 10
8.520897428901125
 20
0.0212951159202515
 30
0.0
 11
0.0208974289011295
 21
0.0212951159202533
 31
0.0
  0
LINE
  5
2917C
330
18
100
AcDbEntity
  8
0
100
AcDbLine
 10
0.0208974289011295
 20
11.02129511592025
 30
0.0
 11
8.520897428901125
 21
11.02129511592025
 31
0.0
  0
LINE
  5
29180
102
{ACAD_REACTORS
330
29346
102
}
330
18
100
AcDbEntity
  8
TITLE
  6
ACAD_ISO07W100
 48
0.05
100
AcDbLine
 10
0.5208974289011295
 20
10.32129511592025
 30
0.0
 11
0.520897428901133
 21
0.7212951159202508
 31
0.0
  0
LINE
  5
29181
330
18
100
AcDbEntity
  8
0
100
AcDbLine
 10
0.0208974289011295
 20
11.02129511592025
 30
0.0
 11
0.0208974289011295
 21
0.0212951159202533
 31
0.0
  0
MTEXT
  5
29184
330
18
100
AcDbEntity
  8
0
100
AcDbMText
 10
0.8548620384909675
 20
2.392331543075408
 30
0.0
 40
0.1
 41
3.043
 71
     1
 72
     5
  1
{\fArial Narrow|b1|i0|c0|p34;ALTINEX, INC. IS NOT RESPONSIBLE\PFOR ANY DAMAGE TO A TABLE \POR DESK.}
  7
ROMANT
 73
     1
 44
1.0
1001
ACAD
1000
MTEXTBEGIN
1070
    73
1070
     1
1070
    44
1040
1.0
1070
    74
1070
     0
1000
MTEXTEND
  0
LINE
  5
29185
330
18
100
AcDbEntity
  8
TITLE
100
AcDbLine
 10
2.384000503240315
 20
1.535581057523506
 30
0.0
 11
2.183756683008802
 21
1.535581057523506
 31
0.0
  0
LINE
  5
29186
330
18
100
AcDbEntity
  8
TITLE
100
AcDbLine
 10
2.183756683008802
 20
1.535581057523506
 30
0.0
 11
2.236352696884008
 21
1.796486864296133
 31
0.0
  0
HATCH
  5
29187
330
18
100
AcDbEntity
  8
0
100
AcDbHatch
 10
0.0
 20
0.0
 30
0.0
210
0.0
220
0.0
230
1.0
  2
SOLID
 70
     1
 71
     0
 91
       10
 92
        7
 72
     0
 73
     1
 93
        4
 10
1.198761958282101
 20
1.796486864296133
 10
0.9924611825063784
 20
1.796486864296133
 10
0.9601048607437085
 20
1.733788675015956
 10
1.166405636519417
 20
1.733788675015953
 97
        0
 92
        7
 72
     0
 73
     1
 93
        4
 10
1.148199428584231
 20
1.697389851954239
 10
0.9418986528085078
 20
1.697389851954239
 10
0.9054889554998588
 20
1.634680788427129
 10
1.111797886960786
 20
1.634680788427129
 97
        0
 92
        7
 72
     0
 73
     1
 93
        4
 10
1.093594397587331
 20
1.598279246803679
 10
0.8872936218116009
 20
1.598279246803679
 10
0.8529038158716026
 20
1.535581057523506
 10
1.057181981716926
 20
1.535581057523506
 97
        0
 92
        7
 72
     0
 73
     1
 93
        8
 10
1.332259650810922
 20
1.796486864296133
 10
1.267527977353434
 20
1.796486864296133
 10
1.125948000788259
 20
1.535581057523506
 10
1.184611844454614
 20
1.535581057523506
 10
1.212920227794793
 20
1.59221141701253
 10
1.314053442875742
 20
1.59221141701253
 10
1.322143882597274
 20
1.535581057523506
 10
1.372706412295151
 20
1.535581057523506
 97
        0
 92
       22
 72
     0
 73
     1
 93
        3
 10
1.235171655590743
 20
1.634680788427132
 10
1.293824625010159
 20
1.741881833299222
 10
1.307985613084586
 20
1.634680788427129
 97
        0
 92
        7
 72
     0
 73
     1
 93
        6
 10
1.512263778929934
 20
1.796486864296136
 10
1.459678639301664
 20
1.796486864296133
 10
1.405070889743022
 20
1.535581057523506
 10
1.593165457583545
 20
1.535581057523506
 10
1.605303835727593
 20
1.578050428938103
 10
1.465746469092824
 20
1.578050428938103
 97
        0
 92
        7
 72
     0
 73
     1
 93
        8
 10
1.83992386909043
 20
1.796486864296133
 10
1.635645703245089
 20
1.796486864296133
 10
1.629577873453943
 20
1.75199488295115
 10
1.702391830947778
 20
1.75199488295115
 10
1.657886256794121
 20
1.535581057523506
 10
1.708459660738917
 20
1.535581057523506
 10
1.75295164208391
 20
1.75199488295115
 10
1.831833429368892
 20
1.75199488295115
 97
        0
 92
        7
 72
     0
 73
     1
 93
        4
 10
1.924873486166582
 20
1.796486864296133
 10
1.872280190853103
 20
1.796486864296133
 10
1.819695051224858
 20
1.535581057523506
 10
1.868232252430601
 20
1.535581057523506
 97
        0
 92
        7
 72
     0
 73
     1
 93
       10
 10
2.028018436930967
 20
1.796486864296133
 10
1.975436015864438
 20
1.796486864296133
 10
1.920828266305797
 20
1.535581057523506
 10
1.973410687372325
 20
1.535581057523506
 10
2.007800493312323
 20
1.711537247219999
 10
2.074543902453271
 20
1.535581057523506
 10
2.125106432151127
 20
1.535581057523506
 10
2.179711463148048
 20
1.796486864296133
 10
2.127129042081527
 20
1.796486864296133
 10
2.092739236141522
 20
1.620530674599633
 97
        0
 92
        7
 72
     0
 73
     1
 93
       12
 10
2.40624105678934
 20
1.691319303601355
 10
2.266683690154554
 20
1.691319303601352
 10
2.278822068298605
 20
1.75199488295115
 10
2.416354106441268
 20
1.75199488295115
 10
2.428492484585287
 20
1.796486864296136
 10
2.236352696884008
 20
1.796486864296133
 10
2.183756683008802
 20
1.535581057523506
 10
2.384000503240315
 20
1.535581057523506
 10
2.396128007137424
 20
1.578050428938103
 10
2.242409652428229
 20
1.578050428938103
 10
2.258593250433033
 20
1.64883905793982
 10
2.396128007137424
 20
1.64883905793982
 97
        0
 75
     0
 76
     1
 47
0.0051866775489356
 98
       10
 10
1.021089362142248
 20
1.766200543681366
 10
1.004964339079833
 20
1.65876968416809
 10
0.9780892392520534
 20
1.551338771606372
 10
1.198464984171327
 20
1.615797308533716
 10
1.198464984171327
 20
1.615797308533716
 10
1.461840851980813
 20
1.696370479692893
 10
1.735966704470012
 20
1.782315177913206
 10
1.870342203608913
 20
1.696370479692893
 10
2.015467687427545
 20
1.733971275217692
 10
2.262718440088967
 20
1.68025584546106
  0
LINE
  5
29189
330
18
100
AcDbEntity
  8
0
100
AcDbLine
 10
0.5408974289011333
 20
2.363295115920251
 30
0.0
 11
0.5408974289011333
 21
1.166237723652342
 31
0.0
  0
LINE
  5
2918A
330
18
100
AcDbEntity
  8
0
100
AcDbLine
 10
0.5408974289011333
 20
1.166237723652342
 30
0.0
 11
0.5408974289011333
 21
0.0212951159202533
 31
0.0
  0
LINE
  5
2918B
330
18
100
AcDbEntity
  8
TITLE
100
AcDbLine
 10
0.8872936218116009
 20
1.598279246803679
 30
0.0
 11
1.093594397587331
 21
1.598279246803679
 31
0.0
  0
LINE
  5
2918C
330
18
100
AcDbEntity
  8
TITLE
100
AcDbLine
 10
1.057181981716933
 20
1.535581057523506
 30
0.0
 11
0.8529038158716026
 21
1.535581057523506
 31
0.0
  0
LINE
  5
2918D
330
18
100
AcDbEntity
  8
TITLE
100
AcDbLine
 10
0.8529038158716026
 20
1.535581057523506
 30
0.0
 11
0.8872936218116009
 21
1.598279246803679
 31
0.0
  0
LINE
  5
2918E
330
18
100
AcDbEntity
  8
TITLE
100
AcDbLine
 10
1.465746469092817
 20
1.578050428938103
 30
0.0
 11
1.605303835727593
 21
1.578050428938103
 31
0.0
  0
LINE
  5
2918F
330
18
100
AcDbEntity
  8
TITLE
100
AcDbLine
 10
1.593165457583559
 20
1.535581057523506
 30
0.0
 11
1.405070889743022
 21
1.535581057523506
 31
0.0
  0
LINE
  5
29190
330
18
100
AcDbEntity
  8
TITLE
100
AcDbLine
 10
1.51226377892992
 20
1.796486864296133
 30
0.0
 11
1.465746469092817
 21
1.578050428938103
 31
0.0
  0
LINE
  5
29191
330
18
100
AcDbEntity
  8
TITLE
100
AcDbLine
 10
1.332259650810922
 20
1.796486864296133
 30
0.0
 11
1.372706412295151
 21
1.535581057523506
 31
0.0
  0
LINE
  5
29192
330
18
100
AcDbEntity
  8
TITLE
100
AcDbLine
 10
1.405070889743022
 20
1.535581057523506
 30
0.0
 11
1.459678639301671
 21
1.796486864296133
 31
0.0
  0
LINE
  5
29193
330
18
100
AcDbEntity
  8
TITLE
100
AcDbLine
 10
1.125948000788266
 20
1.535581057523506
 30
0.0
 11
1.267527977353434
 21
1.796486864296133
 31
0.0
  0
LINE
  5
29194
330
18
100
AcDbEntity
  8
TITLE
100
AcDbLine
 10
1.314053442875742
 20
1.59221141701253
 30
0.0
 11
1.212920227794793
 21
1.59221141701253
 31
0.0
  0
LINE
  5
29195
330
18
100
AcDbEntity
  8
TITLE
100
AcDbLine
 10
1.212920227794793
 20
1.59221141701253
 30
0.0
 11
1.184611844454614
 21
1.535581057523506
 31
0.0
  0
LINE
  5
29196
330
18
100
AcDbEntity
  8
TITLE
100
AcDbLine
 10
1.093594397587331
 20
1.598279246803679
 30
0.0
 11
1.057181981716933
 21
1.535581057523506
 31
0.0
  0
LINE
  5
29197
330
18
100
AcDbEntity
  8
TITLE
100
AcDbLine
 10
1.184611844454614
 20
1.535581057523506
 30
0.0
 11
1.125948000788266
 21
1.535581057523506
 31
0.0
  0
LINE
  5
29198
330
18
100
AcDbEntity
  8
TITLE
100
AcDbLine
 10
1.372706412295151
 20
1.535581057523506
 30
0.0
 11
1.322143882597274
 21
1.535581057523506
 31
0.0
  0
LINE
  5
29199
330
18
100
AcDbEntity
  8
TITLE
100
AcDbLine
 10
1.322143882597274
 20
1.535581057523506
 30
0.0
 11
1.314053442875742
 21
1.59221141701253
 31
0.0
  0
LINE
  5
2919A
330
18
100
AcDbEntity
  8
TITLE
100
AcDbLine
 10
0.9054889554998588
 20
1.634680788427129
 30
0.0
 11
0.9418986528085078
 21
1.697389851954239
 31
0.0
  0
LINE
  5
2919B
330
18
100
AcDbEntity
  8
TITLE
100
AcDbLine
 10
1.111797886960786
 20
1.634680788427129
 30
0.0
 11
0.9054889554998588
 21
1.634680788427129
 31
0.0
  0
LINE
  5
2919C
330
18
100
AcDbEntity
  8
TITLE
100
AcDbLine
 10
1.148199428584231
 20
1.697389851954239
 30
0.0
 11
1.111797886960786
 21
1.634680788427129
 31
0.0
  0
LINE
  5
2919D
330
18
100
AcDbEntity
  8
TITLE
100
AcDbLine
 10
0.9601048607437014
 20
1.733788675015956
 30
0.0
 11
0.9924611825063784
 21
1.796486864296133
 31
0.0
  0
LINE
  5
2919E
330
18
100
AcDbEntity
  8
TITLE
100
AcDbLine
 10
0.9418986528085078
 20
1.697389851954239
 30
0.0
 11
1.148199428584231
 21
1.697389851954239
 31
0.0
  0
LINE
  5
2919F
330
18
100
AcDbEntity
  8
TITLE
100
AcDbLine
 10
1.166405636519417
 20
1.733788675015956
 30
0.0
 11
0.9601048607437014
 21
1.733788675015956
 31
0.0
  0
LINE
  5
291A0
330
18
100
AcDbEntity
  8
TITLE
100
AcDbLine
 10
1.198761958282101
 20
1.796486864296133
 30
0.0
 11
1.166405636519417
 21
1.733788675015956
 31
0.0
  0
LINE
  5
291A1
330
18
100
AcDbEntity
  8
TITLE
100
AcDbLine
 10
0.9924611825063784
 20
1.796486864296133
 30
0.0
 11
1.198761958282101
 21
1.796486864296133
 31
0.0
  0
LINE
  5
291A2
330
18
100
AcDbEntity
  8
TITLE
100
AcDbLine
 10
1.293824625010159
 20
1.741881833299222
 30
0.0
 11
1.235171655590743
 21
1.634680788427129
 31
0.0
  0
LINE
  5
291A3
330
18
100
AcDbEntity
  8
TITLE
100
AcDbLine
 10
1.235171655590743
 20
1.634680788427129
 30
0.0
 11
1.307985613084586
 21
1.634680788427129
 31
0.0
  0
LINE
  5
291A4
330
18
100
AcDbEntity
  8
TITLE
100
AcDbLine
 10
1.267527977353434
 20
1.796486864296133
 30
0.0
 11
1.332259650810922
 21
1.796486864296133
 31
0.0
  0
LINE
  5
291A5
330
18
100
AcDbEntity
  8
TITLE
100
AcDbLine
 10
1.307985613084586
 20
1.634680788427129
 30
0.0
 11
1.293824625010159
 21
1.741881833299222
 31
0.0
  0
LINE
  5
291A6
330
18
100
AcDbEntity
  8
TITLE
100
AcDbLine
 10
1.459678639301671
 20
1.796486864296133
 30
0.0
 11
1.51226377892992
 21
1.796486864296133
 31
0.0
  0
LINE
  5
291A7
330
18
100
AcDbEntity
  8
TITLE
100
AcDbLine
 10
2.028018436930967
 20
1.796486864296133
 30
0.0
 11
2.092739236141522
 21
1.62053067459964
 31
0.0
  0
LINE
  5
291A8
330
18
100
AcDbEntity
  8
TITLE
100
AcDbLine
 10
2.092739236141522
 20
1.62053067459964
 30
0.0
 11
2.12712904208152
 21
1.796486864296133
 31
0.0
  0
LINE
  5
291A9
330
18
100
AcDbEntity
  8
TITLE
100
AcDbLine
 10
1.920828266305797
 20
1.535581057523506
 30
0.0
 11
1.975436015864438
 21
1.796486864296133
 31
0.0
  0
LINE
  5
291AA
330
18
100
AcDbEntity
  8
TITLE
100
AcDbLine
 10
2.074543902453271
 20
1.535581057523506
 30
0.0
 11
2.007800493312316
 21
1.711537247219995
 31
0.0
  0
LINE
  5
291AB
330
18
100
AcDbEntity
  8
TITLE
100
AcDbLine
 10
2.007800493312316
 20
1.711537247219995
 30
0.0
 11
1.973410687372325
 21
1.535581057523506
 31
0.0
  0
LINE
  5
291AC
330
18
100
AcDbEntity
  8
TITLE
100
AcDbLine
 10
2.179711463148048
 20
1.796486864296133
 30
0.0
 11
2.125106432151127
 21
1.535581057523506
 31
0.0
  0
LINE
  5
291AD
330
18
100
AcDbEntity
  8
TITLE
100
AcDbLine
 10
1.924873486166571
 20
1.796486864296133
 30
0.0
 11
1.868232252430601
 21
1.535581057523506
 31
0.0
  0
LINE
  5
291AE
330
18
100
AcDbEntity
  8
TITLE
100
AcDbLine
 10
1.657886256794114
 20
1.535581057523506
 30
0.0
 11
1.702391830947771
 21
1.75199488295115
 31
0.0
  0
LINE
  5
291AF
330
18
100
AcDbEntity
  8
TITLE
100
AcDbLine
 10
1.75295164208391
 20
1.75199488295115
 30
0.0
 11
1.708459660738917
 21
1.535581057523506
 31
0.0
  0
LINE
  5
291B0
330
18
100
AcDbEntity
  8
TITLE
100
AcDbLine
 10
1.819695051224851
 20
1.535581057523506
 30
0.0
 11
1.872280190853103
 21
1.796486864296133
 31
0.0
  0
LINE
  5
291B1
330
18
100
AcDbEntity
  8
TITLE
100
AcDbLine
 10
1.708459660738917
 20
1.535581057523506
 30
0.0
 11
1.657886256794114
 21
1.535581057523506
 31
0.0
  0
LINE
  5
291B2
330
18
100
AcDbEntity
  8
TITLE
100
AcDbLine
 10
1.605303835727593
 20
1.578050428938103
 30
0.0
 11
1.593165457583559
 21
1.535581057523506
 31
0.0
  0
LINE
  5
291B3
330
18
100
AcDbEntity
  8
TITLE
100
AcDbLine
 10
1.868232252430601
 20
1.535581057523506
 30
0.0
 11
1.819695051224851
 21
1.535581057523506
 31
0.0
  0
LINE
  5
291B4
330
18
100
AcDbEntity
  8
TITLE
100
AcDbLine
 10
1.973410687372325
 20
1.535581057523506
 30
0.0
 11
1.920828266305797
 21
1.535581057523506
 31
0.0
  0
LINE
  5
291B5
330
18
100
AcDbEntity
  8
TITLE
100
AcDbLine
 10
2.125106432151127
 20
1.535581057523506
 30
0.0
 11
2.074543902453271
 21
1.535581057523506
 31
0.0
  0
LINE
  5
291B6
330
18
100
AcDbEntity
  8
TITLE
100
AcDbLine
 10
1.872280190853103
 20
1.796486864296133
 30
0.0
 11
1.924873486166571
 21
1.796486864296133
 31
0.0
  0
LINE
  5
291B7
330
18
100
AcDbEntity
  8
TITLE
100
AcDbLine
 10
1.83992386909043
 20
1.796486864296133
 30
0.0
 11
1.831833429368892
 21
1.75199488295115
 31
0.0
  0
LINE
  5
291B8
330
18
100
AcDbEntity
  8
TITLE
100
AcDbLine
 10
1.831833429368892
 20
1.75199488295115
 30
0.0
 11
1.75295164208391
 21
1.75199488295115
 31
0.0
  0
LINE
  5
291B9
330
18
100
AcDbEntity
  8
TITLE
100
AcDbLine
 10
1.702391830947771
 20
1.75199488295115
 30
0.0
 11
1.629577873453936
 21
1.75199488295115
 31
0.0
  0
LINE
  5
291BA
330
18
100
AcDbEntity
  8
TITLE
100
AcDbLine
 10
1.629577873453936
 20
1.75199488295115
 30
0.0
 11
1.635645703245089
 21
1.796486864296133
 31
0.0
  0
LINE
  5
291BB
330
18
100
AcDbEntity
  8
TITLE
100
AcDbLine
 10
1.635645703245089
 20
1.796486864296133
 30
0.0
 11
1.83992386909043
 21
1.796486864296133
 31
0.0
  0
LINE
  5
291BC
330
18
100
AcDbEntity
  8
TITLE
100
AcDbLine
 10
1.975436015864438
 20
1.796486864296133
 30
0.0
 11
2.028018436930967
 21
1.796486864296133
 31
0.0
  0
LINE
  5
291BD
330
18
100
AcDbEntity
  8
TITLE
100
AcDbLine
 10
2.12712904208152
 20
1.796486864296133
 30
0.0
 11
2.179711463148048
 21
1.796486864296133
 31
0.0
  0
LINE
  5
291BE
330
18
100
AcDbEntity
  8
0
100
AcDbLine
 10
4.270897428901129
 20
2.506295115920256
 30
0.0
 11
4.270897428901129
 21
1.166401072136775
 31
0.0
  0
LINE
  5
291BF
330
18
100
AcDbEntity
  8
0
100
AcDbLine
 10
4.270897428901129
 20
0.7963145477169818
 30
0.0
 11
4.270897428901129
 21
0.0212951159202533
 31
0.0
  0
LINE
  5
291C1
330
18
100
AcDbEntity
  8
TITLE
100
AcDbLine
 10
2.572095071080848
 20
1.65895482615347
 30
0.0
 11
2.634793260361025
 21
1.535581057523506
 31
0.0
  0
LINE
  5
291C2
330
18
100
AcDbEntity
  8
TITLE
100
AcDbLine
 10
2.572095071080848
 20
1.65895482615347
 30
0.0
 11
2.634793260361025
 21
1.535581057523506
 31
0.0
  0
LINE
  5
291C3
330
18
100
AcDbEntity
  8
TITLE
100
AcDbLine
 10
2.258593250433033
 20
1.64883905793982
 30
0.0
 11
2.242409652428229
 21
1.578050428938103
 31
0.0
  0
LINE
  5
291C4
330
18
100
AcDbEntity
  8
TITLE
100
AcDbLine
 10
2.398150617067809
 20
1.535581057523506
 30
0.0
 11
2.513442101661443
 21
1.667045265875009
 31
0.0
  0
LINE
  5
291C5
330
18
100
AcDbEntity
  8
TITLE
100
AcDbLine
 10
2.398150617067809
 20
1.535581057523506
 30
0.0
 11
2.513442101661443
 21
1.667045265875009
 31
0.0
  0
HATCH
  5
291C6
330
18
100
AcDbEntity
  8
0
100
AcDbHatch
 10
0.0
 20
0.0
 30
0.0
210
0.0
220
0.0
230
1.0
  2
SOLID
 70
     1
 71
     0
 91
        1
 92
        7
 72
     0
 73
     1
 93
       23
 10
2.691423619850052
 20
1.796486864296133
 10
2.62467749214738
 20
1.796486864296133
 10
2.582293309372989
 20
1.74740870620829
 10
2.579587427220833
 20
1.743828323501015
 10
2.574041561282609
 20
1.73723581129496
 10
2.568049851219999
 20
1.729743455155139
 10
2.561905901700324
 20
1.723077541782471
 10
2.555313389494475
 20
1.715509065913941
 10
2.547821033354498
 20
1.707492027359222
 10
2.546396507005685
 20
1.709441236122779
 10
2.545871824590943
 20
1.710939163638435
 10
2.54579842342412
 20
1.711537247219991
 10
2.503329052009522
 20
1.796486864296136
 10
2.44872130245087
 20
1.796486864296133
 10
2.513442101661443
 20
1.667045265875005
 10
2.398150617067809
 20
1.535581057523506
 10
2.462871416278371
 20
1.535581057523506
 10
2.499281113586949
 20
1.576027819007515
 10
2.50132218488223
 20
1.578190213824262
 10
2.537705265140846
 20
1.618508064669262
 10
2.578162900871991
 20
1.535581057523506
 10
2.634793260361025
 20
1.535581057523506
 10
2.572095071080848
 20
1.658954826153467
 97
        0
 75
     0
 76
     1
 47
0.0015733976332109
 98
        1
 10
2.544181767880051
 20
1.690872007687143
  0
LINE
  5
291C7
330
18
100
AcDbEntity
  8
TITLE
100
AcDbLine
 10
2.578162900872005
 20
1.535581057523506
 30
0.0
 11
2.557934083006426
 21
1.574005209077334
 31
0.0
  0
LINE
  5
291C8
330
18
100
AcDbEntity
  8
TITLE
100
AcDbLine
 10
2.578162900872005
 20
1.535581057523506
 30
0.0
 11
2.537705265140839
 21
1.618508064669256
 31
0.0
  0
LINE
  5
291C9
330
18
100
AcDbEntity
  8
TITLE
100
AcDbLine
 10
2.557934083006426
 20
1.574005209077334
 30
0.0
 11
2.54729635093977
 21
1.596330038040123
 31
0.0
  0
LINE
  5
291CA
330
18
100
AcDbEntity
  8
TITLE
100
AcDbLine
 10
2.242409652428229
 20
1.578050428938103
 30
0.0
 11
2.396128007137416
 21
1.578050428938103
 31
0.0
  0
LINE
  5
291CB
330
18
100
AcDbEntity
  8
TITLE
100
AcDbLine
 10
2.540252557485967
 20
1.611015708529286
 30
0.0
 11
2.537705265140839
 21
1.618508064669256
 31
0.0
  0
LINE
  5
291CC
330
18
100
AcDbEntity
  8
TITLE
100
AcDbLine
 10
2.537705265140839
 20
1.618508064669256
 30
0.0
 11
2.529546861375951
 21
1.609292140389683
 31
0.0
  0
LINE
  5
291CD
330
18
100
AcDbEntity
  8
TITLE
100
AcDbLine
 10
2.529546861375951
 20
1.609292140389683
 30
0.0
 11
2.516889237940635
 21
1.594682589629085
 31
0.0
  0
LINE
  5
291CE
330
18
100
AcDbEntity
  8
TITLE
100
AcDbLine
 10
2.516889237940635
 20
1.594682589629085
 30
0.0
 11
2.49928111358702
 21
1.576027819007718
 31
0.0
  0
LINE
  5
291CF
330
18
100
AcDbEntity
  8
TITLE
100
AcDbLine
 10
2.462871416278371
 20
1.535581057523506
 30
0.0
 11
2.398150617067809
 21
1.535581057523506
 31
0.0
  0
LINE
  5
291D0
330
18
100
AcDbEntity
  8
TITLE
100
AcDbLine
 10
2.462871416278371
 20
1.535581057523506
 30
0.0
 11
2.398150617067809
 21
1.535581057523506
 31
0.0
  0
LINE
  5
291D1
330
18
100
AcDbEntity
  8
TITLE
100
AcDbLine
 10
2.537705265140839
 20
1.618508064669256
 30
0.0
 11
2.462871416278371
 21
1.535581057523506
 31
0.0
  0
LINE
  5
291D2
330
18
100
AcDbEntity
  8
TITLE
100
AcDbLine
 10
2.49928111358702
 20
1.576027819007718
 30
0.0
 11
2.462871416278371
 21
1.535581057523506
 31
0.0
  0
LINE
  5
291D3
330
18
100
AcDbEntity
  8
TITLE
100
AcDbLine
 10
2.396128007137416
 20
1.578050428938103
 30
0.0
 11
2.384000503240315
 21
1.535581057523506
 31
0.0
  0
LINE
  5
291D4
330
18
100
AcDbEntity
  8
TITLE
100
AcDbLine
 10
2.54729635093977
 20
1.596330038040123
 30
0.0
 11
2.540252557485967
 21
1.611015708529286
 31
0.0
  0
LINE
  5
291D5
330
18
100
AcDbEntity
  8
TITLE
100
AcDbLine
 10
2.634793260361025
 20
1.535581057523506
 30
0.0
 11
2.578162900872005
 21
1.535581057523506
 31
0.0
  0
LINE
  5
291D6
330
18
100
AcDbEntity
  8
TITLE
100
AcDbLine
 10
2.634793260361025
 20
1.535581057523506
 30
0.0
 11
2.578162900872005
 21
1.535581057523506
 31
0.0
  0
LINE
  5
291D7
330
18
100
AcDbEntity
  8
TITLE
100
AcDbLine
 10
2.555313389494461
 20
1.715509065913932
 30
0.0
 11
2.561905901700367
 21
1.723077541782471
 31
0.0
  0
LINE
  5
291D8
330
18
100
AcDbEntity
  8
TITLE
100
AcDbLine
 10
2.547821033354498
 20
1.707492027359222
 30
0.0
 11
2.62467749214738
 21
1.796486864296133
 31
0.0
  0
LINE
  5
291D9
330
18
100
AcDbEntity
  8
TITLE
100
AcDbLine
 10
2.546396507005677
 20
1.709441236122779
 30
0.0
 11
2.547821033354498
 21
1.707492027359222
 31
0.0
  0
LINE
  5
291DA
330
18
100
AcDbEntity
  8
TITLE
100
AcDbLine
 10
2.547821033354498
 20
1.707492027359222
 30
0.0
 11
2.555313389494461
 21
1.715509065913932
 31
0.0
  0
LINE
  5
291DB
330
18
100
AcDbEntity
  8
TITLE
100
AcDbLine
 10
2.236352696884008
 20
1.796486864296133
 30
0.0
 11
2.428492484585287
 21
1.796486864296133
 31
0.0
  0
LINE
  5
291DC
330
18
100
AcDbEntity
  8
TITLE
100
AcDbLine
 10
2.416354106441268
 20
1.75199488295115
 30
0.0
 11
2.278822068298605
 21
1.75199488295115
 31
0.0
  0
LINE
  5
291DD
330
18
100
AcDbEntity
  8
TITLE
100
AcDbLine
 10
2.266683690154554
 20
1.691319303601355
 30
0.0
 11
2.40624105678934
 21
1.691319303601355
 31
0.0
  0
LINE
  5
291DE
330
18
100
AcDbEntity
  8
TITLE
100
AcDbLine
 10
2.396128007137416
 20
1.64883905793982
 30
0.0
 11
2.258593250433033
 21
1.64883905793982
 31
0.0
  0
LINE
  5
291DF
330
18
100
AcDbEntity
  8
TITLE
100
AcDbLine
 10
2.278822068298605
 20
1.75199488295115
 30
0.0
 11
2.266683690154554
 21
1.691319303601355
 31
0.0
  0
LINE
  5
291E0
330
18
100
AcDbEntity
  8
TITLE
100
AcDbLine
 10
2.44872130245087
 20
1.796486864296133
 30
0.0
 11
2.503329052009515
 21
1.796486864296133
 31
0.0
  0
LINE
  5
291E1
330
18
100
AcDbEntity
  8
TITLE
100
AcDbLine
 10
2.513442101661443
 20
1.667045265875009
 30
0.0
 11
2.44872130245087
 21
1.796486864296133
 31
0.0
  0
LINE
  5
291E2
330
18
100
AcDbEntity
  8
TITLE
100
AcDbLine
 10
2.503329052009515
 20
1.796486864296133
 30
0.0
 11
2.54579842342412
 21
1.711537247219991
 31
0.0
  0
LINE
  5
291E3
330
18
100
AcDbEntity
  8
TITLE
100
AcDbLine
 10
2.513442101661443
 20
1.667045265875009
 30
0.0
 11
2.44872130245087
 21
1.796486864296133
 31
0.0
  0
LINE
  5
291E4
330
18
100
AcDbEntity
  8
TITLE
100
AcDbLine
 10
2.44872130245087
 20
1.796486864296133
 30
0.0
 11
2.503329052009515
 21
1.796486864296133
 31
0.0
  0
LINE
  5
291E5
330
18
100
AcDbEntity
  8
TITLE
100
AcDbLine
 10
2.503329052009515
 20
1.796486864296133
 30
0.0
 11
2.527603089735872
 21
1.747949663090375
 31
0.0
  0
LINE
  5
291E6
330
18
100
AcDbEntity
  8
TITLE
100
AcDbLine
 10
2.527603089735872
 20
1.747949663090375
 30
0.0
 11
2.529625699666244
 21
1.744353005915781
 31
0.0
  0
LINE
  5
291E7
330
18
100
AcDbEntity
  8
TITLE
100
AcDbLine
 10
2.529625699666244
 20
1.744353005915781
 30
0.0
 11
2.535690810895669
 21
1.732665909019653
 31
0.0
  0
LINE
  5
291E8
330
18
100
AcDbEntity
  8
TITLE
100
AcDbLine
 10
2.535690810895669
 20
1.732665909019653
 30
0.0
 11
2.54579842342412
 21
1.711537247219995
 31
0.0
  0
LINE
  5
291E9
330
18
100
AcDbEntity
  8
TITLE
100
AcDbLine
 10
2.54579842342412
 20
1.711537247219995
 30
0.0
 11
2.545871824590943
 21
1.710939163638427
 31
0.0
  0
LINE
  5
291EA
330
18
100
AcDbEntity
  8
TITLE
100
AcDbLine
 10
2.428492484585287
 20
1.796486864296133
 30
0.0
 11
2.416354106441268
 21
1.75199488295115
 31
0.0
  0
LINE
  5
291EB
330
18
100
AcDbEntity
  8
TITLE
100
AcDbLine
 10
2.40624105678934
 20
1.691319303601355
 30
0.0
 11
2.396128007137416
 21
1.64883905793982
 31
0.0
  0
LINE
  5
291EC
330
18
100
AcDbEntity
  8
TITLE
100
AcDbLine
 10
2.54579842342412
 20
1.711537247219991
 30
0.0
 11
2.547821033354498
 21
1.707492027359222
 31
0.0
  0
LINE
  5
291ED
330
18
100
AcDbEntity
  8
TITLE
100
AcDbLine
 10
2.545871824590943
 20
1.710939163638427
 30
0.0
 11
2.546396507005677
 21
1.709441236122779
 31
0.0
  0
MTEXT
  5
291EE
330
18
100
AcDbEntity
  8
0
100
AcDbMText
 10
2.759328298871089
 20
1.849217805991582
 30
0.0
 40
0.04
 41
3.043
 71
     1
 72
     5
  1
{\fArial Narrow|b0|i0|c0|p34;R}
  7
ROMANT
 73
     1
 44
1.0
1001
ACAD
1000
MTEXTBEGIN
1070
    73
1070
     1
1070
    44
1040
1.0
1070
    74
1070
     0
1000
MTEXTEND
  0
LINE
  5
291EF
330
18
100
AcDbEntity
  8
TITLE
100
AcDbLine
 10
2.62467749214738
 20
1.796486864296133
 30
0.0
 11
2.691423619850052
 21
1.796486864296133
 31
0.0
  0
LINE
  5
291F0
330
18
100
AcDbEntity
  8
TITLE
100
AcDbLine
 10
2.62467749214738
 20
1.796486864296133
 30
0.0
 11
2.691423619850052
 21
1.796486864296133
 31
0.0
  0
LINE
  5
291F1
330
18
100
AcDbEntity
  8
TITLE
100
AcDbLine
 10
2.574041561282658
 20
1.737235811295155
 30
0.0
 11
2.579587427220818
 21
1.743828323501048
 31
0.0
  0
LINE
  5
291F2
330
18
100
AcDbEntity
  8
TITLE
100
AcDbLine
 10
2.579587427220818
 20
1.743828323501048
 30
0.0
 11
2.584230730663147
 21
1.749972273020761
 31
0.0
  0
LINE
  5
291F3
330
18
100
AcDbEntity
  8
TITLE
100
AcDbLine
 10
2.584230730663147
 20
1.749972273020761
 30
0.0
 11
2.62467749214738
 21
1.796486864296133
 31
0.0
  0
LINE
  5
291F4
330
18
100
AcDbEntity
  8
TITLE
100
AcDbLine
 10
2.561905901700367
 20
1.723077541782471
 30
0.0
 11
2.56804985122007
 21
1.729743455155189
 31
0.0
  0
LINE
  5
291F5
330
18
100
AcDbEntity
  8
TITLE
100
AcDbLine
 10
2.691423619850052
 20
1.796486864296133
 30
0.0
 11
2.572095071080848
 21
1.65895482615347
 31
0.0
  0
LINE
  5
291F6
330
18
100
AcDbEntity
  8
TITLE
100
AcDbLine
 10
2.691423619850052
 20
1.796486864296133
 30
0.0
 11
2.572095071080848
 21
1.65895482615347
 31
0.0
  0
LINE
  5
291F7
330
18
100
AcDbEntity
  8
TITLE
100
AcDbLine
 10
2.56804985122007
 20
1.729743455155189
 30
0.0
 11
2.574041561282658
 21
1.737235811295155
 31
0.0
  0
LWPOLYLINE
  5
291F8
330
18
100
AcDbEntity
  8
0
100
AcDbPolyline
 90
        2
 70
     1
 43
0.0040134408646155
 10
2.743912566702576
 20
1.828524065017171
 42
1.0
 10
2.810669790838822
 20
1.828524065017171
 42
1.0
  0
MTEXT
  5
291FB
330
18
100
AcDbEntity
  8
0
100
AcDbMText
 10
1.459918011557494
 20
3.581797611473879
 30
0.0
 40
0.09
 41
3.043
 71
     1
 72
     5
  1
{\fArial|b0|i0|c0|p34;inch.}
  7
ROMANT
 11
0.0000000000000001
 21
1.0
 31
0.0
 73
     1
 44
1.0
1001
ACAD
1000
MTEXTBEGIN
1070
    73
1070
     1
1070
    44
1040
1.0
1070
    74
1070
     0
1000
MTEXTEND
  0
MTEXT
  5
291FC
330
18
100
AcDbEntity
  8
0
100
AcDbMText
 10
1.337759175644361
 20
4.729291785634631
 30
0.0
 40
0.11
 41
3.043
 71
     1
 72
     5
  1
{\fArial|b0|i0|c0|p34;MEASURE  WITH A RULER.}
  7
ROMANT
 11
0.0000000000000001
 21
1.0
 31
0.0
 73
     1
 44
1.0
1001
ACAD
1000
MTEXTBEGIN
1070
    73
1070
     1
1070
    44
1040
1.0
1070
    74
1070
     0
1000
MTEXTEND
  0
MTEXT
  5
291FD
330
18
100
AcDbEntity
  8
0
100
AcDbMText
 10
0.8312011245036565
 20
10.26730895876486
 30
0.0
 40
0.096
 41
2.514
 71
     1
 72
     5
  1
{\fArial Narrow|b1|i0|c0|p34;VERIFY ALL DIMENSIONS\PTO ENSURE THAT THIS\PPRINT IS 1 TO 1 SCALE.}
  7
ROMANT
 73
     1
 44
1.0
1001
ACAD
1000
MTEXTBEGIN
1070
    73
1070
     1
1070
    44
1040
1.0
1070
    74
1070
     0
1000
MTEXTEND
  0
LINE
  5
291FE
330
18
100
AcDbEntity
  8
0
100
AcDbLine
 10
1.42333701650759
 20
9.116295115920253
 30
0.0
 11
1.090897428901132
 21
9.11629511592025
 31
0.0
  0
LINE
  5
291FF
330
18
100
AcDbEntity
  8
0
100
AcDbLine
 10
0.5908974289011298
 20
5.521295115920249
 30
0.0
 11
0.0208974289011295
 21
5.521295115920247
 31
0.0
  0
LINE
  5
29200
330
18
100
AcDbEntity
  8
0
100
AcDbLine
 10
2.054085356544195
 20
3.552795115920252
 30
0.0
 11
2.054085356544195
 21
7.489795115920243
 31
0.0
  0
LINE
  5
29202
330
18
100
AcDbEntity
  8
0
100
AcDbLine
 10
1.586076587245603
 20
3.571295115920249
 30
0.0
 11
1.586076587245603
 21
7.571295115920247
 31
0.0
  0
MTEXT
  5
29205
330
18
100
AcDbEntity
  8
0
100
AcDbMText
 10
1.927735677593613
 20
3.586362788882253
 30
0.0
 40
0.09
 41
3.043
 71
     1
 72
     5
  1
{\fArial|b0|i0|c0|p34;cm.}
  7
ROMANT
 11
0.0000000000000001
 21
1.0
 31
0.0
 73
     1
 44
1.0
1001
ACAD
1000
MTEXTBEGIN
1070
    73
1070
     1
1070
    44
1040
1.0
1070
    74
1070
     0
1000
MTEXTEND
  0
MTEXT
  5
29206
330
18
100
AcDbEntity
  8
0
100
AcDbMText
 10
1.704959068951072
 20
3.496549993119739
 30
0.0
 40
0.09
 41
3.043
 71
     1
 72
     5
  1
{\fArial|b0|i0|c0|p34;0"}
  7
ROMANT
 11
0.0000000000000001
 21
1.0
 31
0.0
 73
     1
 44
1.0
1001
ACAD
1000
MTEXTBEGIN
1070
    73
1070
     1
1070
    44
1040
1.0
1070
    74
1070
     0
1000
MTEXTEND
  0
LINE
  5
29207
330
18
100
AcDbEntity
  8
0
100
AcDbLine
 10
1.658043468735588
 20
3.521295115920249
 30
0.0
 11
1.514109705755618
 21
3.521295115920249
 31
0.0
  0
LINE
  5
29208
330
18
100
AcDbEntity
  8
0
100
AcDbLine
 10
2.12605223803418
 20
3.552795115920252
 30
0.0
 11
1.98211847505421
 21
3.552795115920252
 31
0.0
  0
LINE
  5
29209
330
18
100
AcDbEntity
  8
0
100
AcDbLine
 10
2.12605223803418
 20
3.946495115920251
 30
0.0
 11
1.98211847505421
 21
3.946495115920251
 31
0.0
  0
MTEXT
  5
2920A
330
18
100
AcDbEntity
  8
0
100
AcDbMText
 10
2.172967838249665
 20
3.528049993119742
 30
0.0
 40
0.09
 41
3.043
 71
     1
 72
     5
  1
{\fArial|b0|i0|c0|p34;0}
  7
ROMANT
 11
0.0000000000000001
 21
1.0
 31
0.0
 73
     1
 44
1.0
1001
ACAD
1000
MTEXTBEGIN
1070
    73
1070
     1
1070
    44
1040
1.0
1070
    74
1070
     0
1000
MTEXTEND
  0
MTEXT
  5
2920B
330
18
100
AcDbEntity
  8
0
100
AcDbMText
 10
2.172967838249665
 20
3.92878596562822
 30
0.0
 40
0.09
 41
3.043
 71
     1
 72
     5
  1
{\fArial|b0|i0|c0|p34;1}
  7
ROMANT
 11
0.0000000000000001
 21
1.0
 31
0.0
 73
     1
 44
1.0
1001
ACAD
1000
MTEXTBEGIN
1070
    73
1070
     1
1070
    44
1040
1.0
1070
    74
1070
     0
1000
MTEXTEND
  0
LINE
  5
2920C
330
18
100
AcDbEntity
  8
0
100
AcDbLine
 10
2.12605223803418
 20
4.34019511592025
 30
0.0
 11
1.98211847505421
 21
4.34019511592025
 31
0.0
  0
MTEXT
  5
2920D
330
18
100
AcDbEntity
  8
0
100
AcDbMText
 10
1.704959068951072
 20
4.496549993119739
 30
0.0
 40
0.09
 41
3.043
 71
     1
 72
     5
  1
{\fArial|b0|i0|c0|p34;1"}
  7
ROMANT
 11
0.0000000000000001
 21
1.0
 31
0.0
 73
     1
 44
1.0
1001
ACAD
1000
MTEXTBEGIN
1070
    73
1070
     1
1070
    44
1040
1.0
1070
    74
1070
     0
1000
MTEXTEND
  0
POINT
  5
2920E
330
18
100
AcDbEntity
  8
0
100
AcDbPoint
 10
1.586076587245603
 20
4.521295115920249
 30
0.0
  0
LINE
  5
2920F
330
18
100
AcDbEntity
  8
0
100
AcDbLine
 10
1.658043468735588
 20
4.521295115920249
 30
0.0
 11
1.514109705755618
 21
4.521295115920249
 31
0.0
  0
LINE
  5
29210
330
18
100
AcDbEntity
  8
0
100
AcDbLine
 10
2.12605223803418
 20
4.733895115920249
 30
0.0
 11
1.98211847505421
 21
4.733895115920249
 31
0.0
  0
MTEXT
  5
29211
330
18
100
AcDbEntity
  8
0
100
AcDbMText
 10
2.172967838249665
 20
4.322485965628219
 30
0.0
 40
0.09
 41
3.043
 71
     1
 72
     5
  1
{\fArial|b0|i0|c0|p34;2}
  7
ROMANT
 11
0.0000000000000001
 21
1.0
 31
0.0
 73
     1
 44
1.0
1001
ACAD
1000
MTEXTBEGIN
1070
    73
1070
     1
1070
    44
1040
1.0
1070
    74
1070
     0
1000
MTEXTEND
  0
MTEXT
  5
29212
330
18
100
AcDbEntity
  8
0
100
AcDbMText
 10
2.172967838249665
 20
4.716185965628218
 30
0.0
 40
0.09
 41
3.043
 71
     1
 72
     5
  1
{\fArial|b0|i0|c0|p34;3}
  7
ROMANT
 11
0.0000000000000001
 21
1.0
 31
0.0
 73
     1
 44
1.0
1001
ACAD
1000
MTEXTBEGIN
1070
    73
1070
     1
1070
    44
1040
1.0
1070
    74
1070
     0
1000
MTEXTEND
  0
LINE
  5
29213
330
18
100
AcDbEntity
  8
0
100
AcDbLine
 10
2.12605223803418
 20
5.127595115920248
 30
0.0
 11
1.98211847505421
 21
5.127595115920248
 31
0.0
  0
MTEXT
  5
29214
330
18
100
AcDbEntity
  8
0
100
AcDbMText
 10
1.704959068951072
 20
5.496549993119739
 30
0.0
 40
0.09
 41
3.043
 71
     1
 72
     5
  1
{\fArial|b0|i0|c0|p34;2"}
  7
ROMANT
 11
0.0000000000000001
 21
1.0
 31
0.0
 73
     1
 44
1.0
1001
ACAD
1000
MTEXTBEGIN
1070
    73
1070
     1
1070
    44
1040
1.0
1070
    74
1070
     0
1000
MTEXTEND
  0
MTEXT
  5
29218
330
18
100
AcDbEntity
  8
0
100
AcDbMText
 10
2.172967838249665
 20
5.109885965628217
 30
0.0
 40
0.09
 41
3.043
 71
     1
 72
     5
  1
{\fArial|b0|i0|c0|p34;4}
  7
ROMANT
 11
0.0000000000000001
 21
1.0
 31
0.0
 73
     1
 44
1.0
1001
ACAD
1000
MTEXTBEGIN
1070
    73
1070
     1
1070
    44
1040
1.0
1070
    74
1070
     0
1000
MTEXTEND
  0
MTEXT
  5
2921A
330
18
100
AcDbEntity
  8
0
100
AcDbMText
 10
2.172967838249665
 20
5.503585965628216
 30
0.0
 40
0.09
 41
3.043
 71
     1
 72
     5
  1
{\fArial|b0|i0|c0|p34;5}
  7
ROMANT
 11
0.0000000000000001
 21
1.0
 31
0.0
 73
     1
 44
1.0
1001
ACAD
1000
MTEXTBEGIN
1070
    73
1070
     1
1070
    44
1040
1.0
1070
    74
1070
     0
1000
MTEXTEND
  0
LINE
  5
2921D
330
18
100
AcDbEntity
  8
0
100
AcDbLine
 10
2.12605223803418
 20
5.914995115920246
 30
0.0
 11
1.98211847505421
 21
5.914995115920246
 31
0.0
  0
MTEXT
  5
2921E
330
18
100
AcDbEntity
  8
0
100
AcDbMText
 10
1.704959068951072
 20
6.496549993119737
 30
0.0
 40
0.09
 41
3.043
 71
     1
 72
     5
  1
{\fArial|b0|i0|c0|p34;3"}
  7
ROMANT
 11
0.0000000000000001
 21
1.0
 31
0.0
 73
     1
 44
1.0
1001
ACAD
1000
MTEXTBEGIN
1070
    73
1070
     1
1070
    44
1040
1.0
1070
    74
1070
     0
1000
MTEXTEND
  0
POINT
  5
2921F
330
18
100
AcDbEntity
  8
0
100
AcDbPoint
 10
1.586076587245603
 20
6.521295115920247
 30
0.0
  0
LINE
  5
29220
330
18
100
AcDbEntity
  8
0
100
AcDbLine
 10
1.658043468735588
 20
6.521295115920247
 30
0.0
 11
1.514109705755618
 21
6.521295115920247
 31
0.0
  0
LINE
  5
29221
330
18
100
AcDbEntity
  8
0
100
AcDbLine
 10
2.12605223803418
 20
6.308695115920246
 30
0.0
 11
1.98211847505421
 21
6.308695115920246
 31
0.0
  0
MTEXT
  5
29222
330
18
100
AcDbEntity
  8
0
100
AcDbMText
 10
2.172967838249665
 20
5.897285965628215
 30
0.0
 40
0.09
 41
3.043
 71
     1
 72
     5
  1
{\fArial|b0|i0|c0|p34;6}
  7
ROMANT
 11
0.0000000000000001
 21
1.0
 31
0.0
 73
     1
 44
1.0
1001
ACAD
1000
MTEXTBEGIN
1070
    73
1070
     1
1070
    44
1040
1.0
1070
    74
1070
     0
1000
MTEXTEND
  0
MTEXT
  5
29223
330
18
100
AcDbEntity
  8
0
100
AcDbMText
 10
2.172967838249665
 20
6.290985965628214
 30
0.0
 40
0.09
 41
3.043
 71
     1
 72
     5
  1
{\fArial|b0|i0|c0|p34;7}
  7
ROMANT
 11
0.0000000000000001
 21
1.0
 31
0.0
 73
     1
 44
1.0
1001
ACAD
1000
MTEXTBEGIN
1070
    73
1070
     1
1070
    44
1040
1.0
1070
    74
1070
     0
1000
MTEXTEND
  0
MTEXT
  5
29226
330
18
100
AcDbEntity
  8
0
100
AcDbMText
 10
3.481496818019461
 20
7.831701993593469
 30
0.0
 40
0.11
 41
3.043
 71
     1
 72
     5
  1
{\fArial|b0|i0|c0|p34;MEASURE  WITH A RULER.}
  7
ROMANT
 73
     1
 44
1.0
1001
ACAD
1000
MTEXTBEGIN
1070
    73
1070
     1
1070
    44
1040
1.0
1070
    74
1070
     0
1000
MTEXTEND
  0
MTEXT
  5
29227
330
18
100
AcDbEntity
  8
0
100
AcDbMText
 10
0.8229452463292581
 20
9.65864027721215
 30
0.0
 40
0.093
 41
3.043
 71
     1
 72
     5
  1
{\fArial Narrow|b1|i0|c0|p34;THIS IS A PRECISION CUT-OUT TEMPLATE.\P\fArial|b1|i0|c0|p34;\H1.237x;DO NOT SCALE OR ADJUST!}
  7
ROMANT
 73
     1
 44
1.0
1001
ACAD
1000
MTEXTBEGIN
1070
    73
1070
     1
1070
    44
1040
1.0
1070
    74
1070
     0
1000
MTEXTEND
  0
MTEXT
  5
2922A
330
18
100
AcDbEntity
  8
0
100
AcDbMText
 10
2.172967838249665
 20
7.432499363134715
 30
0.0
 40
0.09
 41
3.043
 71
     1
 72
     5
  1
{\fArial|b0|i0|c0|p34;10}
  7
ROMANT
 11
0.0000000000000001
 21
1.0
 31
0.0
 73
     1
 44
1.0
1001
ACAD
1000
MTEXTBEGIN
1070
    73
1070
     1
1070
    44
1040
1.0
1070
    74
1070
     0
1000
MTEXTEND
  0
LINE
  5
2922B
330
18
100
AcDbEntity
  8
0
100
AcDbLine
 10
2.12605223803418
 20
6.702395115920245
 30
0.0
 11
1.98211847505421
 21
6.702395115920245
 31
0.0
  0
LINE
  5
2922C
330
18
100
AcDbEntity
  8
0
100
AcDbLine
 10
2.12605223803418
 20
7.096095115920244
 30
0.0
 11
1.98211847505421
 21
7.096095115920244
 31
0.0
  0
MTEXT
  5
2922D
330
18
100
AcDbEntity
  8
0
100
AcDbMText
 10
2.172967838249665
 20
6.684685965628213
 30
0.0
 40
0.09
 41
3.043
 71
     1
 72
     5
  1
{\fArial|b0|i0|c0|p34;8}
  7
ROMANT
 11
0.0000000000000001
 21
1.0
 31
0.0
 73
     1
 44
1.0
1001
ACAD
1000
MTEXTBEGIN
1070
    73
1070
     1
1070
    44
1040
1.0
1070
    74
1070
     0
1000
MTEXTEND
  0
MTEXT
  5
2922E
330
18
100
AcDbEntity
  8
0
100
AcDbMText
 10
2.172967838249665
 20
7.078385965628212
 30
0.0
 40
0.09
 41
3.043
 71
     1
 72
     5
  1
{\fArial|b0|i0|c0|p34;9}
  7
ROMANT
 11
0.0000000000000001
 21
1.0
 31
0.0
 73
     1
 44
1.0
1001
ACAD
1000
MTEXTBEGIN
1070
    73
1070
     1
1070
    44
1040
1.0
1070
    74
1070
     0
1000
MTEXTEND
  0
MTEXT
  5
2922F
330
18
100
AcDbEntity
  8
0
100
AcDbMText
 10
1.704959068951072
 20
7.496549993119737
 30
0.0
 40
0.09
 41
3.043
 71
     1
 72
     5
  1
{\fArial|b0|i0|c0|p34;4"}
  7
ROMANT
 11
0.0000000000000001
 21
1.0
 31
0.0
 73
     1
 44
1.0
1001
ACAD
1000
MTEXTBEGIN
1070
    73
1070
     1
1070
    44
1040
1.0
1070
    74
1070
     0
1000
MTEXTEND
  0
LINE
  5
29230
330
18
100
AcDbEntity
  8
0
100
AcDbLine
 10
1.658043468735588
 20
7.571295115920247
 30
0.0
 11
1.514109705755618
 21
7.571295115920247
 31
0.0
  0
LINE
  5
29231
330
18
100
AcDbEntity
  8
0
100
AcDbLine
 10
2.12605223803418
 20
7.489795115920243
 30
0.0
 11
1.98211847505421
 21
7.489795115920243
 31
0.0
  0
LINE
  5
29232
330
18
100
AcDbEntity
  8
0
100
AcDbLine
 10
0.5408974289011369
 20
9.225620744340446
 30
0.0
 11
0.5408974289011369
 21
10.32129511592025
 31
0.0
  0
LINE
  5
29233
330
18
100
AcDbEntity
  8
0
100
AcDbLine
 10
3.483497428901127
 20
8.126193894736394
 30
0.0
 11
3.483497428901127
 21
8.270127657716363
 31
0.0
  0
LINE
  5
29234
330
18
100
AcDbEntity
  8
0
100
AcDbLine
 10
3.089797428901128
 20
8.126193894736394
 30
0.0
 11
3.089797428901128
 21
8.270127657716363
 31
0.0
  0
LINE
  5
29235
330
18
100
AcDbEntity
  8
0
100
AcDbLine
 10
2.696097428901129
 20
8.126193894736394
 30
0.0
 11
2.696097428901129
 21
8.270127657716363
 31
0.0
  0
LINE
  5
29236
330
18
100
AcDbEntity
  8
0
100
AcDbLine
 10
2.30239742890113
 20
8.126193894736394
 30
0.0
 11
2.30239742890113
 21
8.270127657716363
 31
0.0
  0
MTEXT
  5
29237
330
18
100
AcDbEntity
  8
0
100
AcDbMText
 10
2.27765230610062
 20
8.079278294520909
 30
0.0
 40
0.09
 41
3.043
 71
     1
 72
     5
  1
{\fArial|b0|i0|c0|p34;0}
  7
ROMANT
 73
     1
 44
1.0
1001
ACAD
1000
MTEXTBEGIN
1070
    73
1070
     1
1070
    44
1040
1.0
1070
    74
1070
     0
1000
MTEXTEND
  0
MTEXT
  5
29238
330
18
100
AcDbEntity
  8
0
100
AcDbMText
 10
2.656656312554996
 20
8.073329884496411
 30
0.0
 40
0.09
 41
3.043
 71
     1
 72
     5
  1
{\fArial|b0|i0|c0|p34;1}
  7
ROMANT
 73
     1
 44
1.0
1001
ACAD
1000
MTEXTBEGIN
1070
    73
1070
     1
1070
    44
1040
1.0
1070
    74
1070
     0
1000
MTEXTEND
  0
MTEXT
  5
29239
330
18
100
AcDbEntity
  8
0
100
AcDbMText
 10
3.050356312554995
 20
8.073329884496411
 30
0.0
 40
0.09
 41
3.043
 71
     1
 72
     5
  1
{\fArial|b0|i0|c0|p34;2}
  7
ROMANT
 73
     1
 44
1.0
1001
ACAD
1000
MTEXTBEGIN
1070
    73
1070
     1
1070
    44
1040
1.0
1070
    74
1070
     0
1000
MTEXTEND
  0
MTEXT
  5
2923A
330
18
100
AcDbEntity
  8
0
100
AcDbMText
 10
3.444056312554995
 20
8.073329884496411
 30
0.0
 40
0.09
 41
3.043
 71
     1
 72
     5
  1
{\fArial|b0|i0|c0|p34;3}
  7
ROMANT
 73
     1
 44
1.0
1001
ACAD
1000
MTEXTBEGIN
1070
    73
1070
     1
1070
    44
1040
1.0
1070
    74
1070
     0
1000
MTEXTEND
  0
MTEXT
  5
2923B
102
{ACAD_REACTORS
330
2976E
102
}
330
18
100
AcDbEntity
  8
0
100
AcDbMText
 10
2.246152306100615
 20
8.500093839105828
 30
0.0
 40
0.09
 41
3.043
 71
     1
 72
     5
  1
{\fArial|b0|i0|c0|p34;0"}
  7
ROMANT
 73
     1
 44
1.0
1001
ACAD
1000
MTEXTBEGIN
1070
    73
1070
     1
1070
    44
1040
1.0
1070
    74
1070
     0
1000
MTEXTEND
  0
MTEXT
  5
2923C
330
18
100
AcDbEntity
  8
0
100
AcDbMText
 10
2.333209675274265
 20
8.314593694051795
 30
0.0
 40
0.09
 41
3.043
 71
     1
 72
     5
  1
{\fArial|b0|i0|c0|p34;cm.}
  7
ROMANT
 73
     1
 44
1.0
1001
ACAD
1000
MTEXTBEGIN
1070
    73
1070
     1
1070
    44
1040
1.0
1070
    74
1070
     0
1000
MTEXTEND
  0
MTEXT
  5
2923D
102
{ACAD_REACTORS
330
2976E
102
}
330
18
100
AcDbEntity
  8
0
100
AcDbMText
 10
2.306816908175942
 20
8.736197734346193
 30
0.0
 40
0.09
 41
3.043
 71
     1
 72
     5
  1
{\fArial|b0|i0|c0|p34;inch.}
  7
ROMANT
 73
     1
 44
1.0
1001
ACAD
1000
MTEXTBEGIN
1070
    73
1070
     1
1070
    44
1040
1.0
1070
    74
1070
     0
1000
MTEXTEND
  0
LINE
  5
2923E
102
{ACAD_REACTORS
330
2976E
102
}
330
18
100
AcDbEntity
  8
0
100
AcDbLine
 10
2.270897428901125
 20
8.554862649262167
 30
0.0
 11
2.270897428901125
 21
8.698796412242137
 31
0.0
  0
MTEXT
  5
2923F
102
{ACAD_REACTORS
330
2976E
102
}
330
18
100
AcDbEntity
  8
0
100
AcDbMText
 10
3.246152306100615
 20
8.500093839105828
 30
0.0
 40
0.09
 41
3.043
 71
     1
 72
     5
  1
{\fArial|b0|i0|c0|p34;1"}
  7
ROMANT
 73
     1
 44
1.0
1001
ACAD
1000
MTEXTBEGIN
1070
    73
1070
     1
1070
    44
1040
1.0
1070
    74
1070
     0
1000
MTEXTEND
  0
LINE
  5
29240
102
{ACAD_REACTORS
330
2976E
102
}
330
18
100
AcDbEntity
  8
0
100
AcDbLine
 10
3.270897428901125
 20
8.547009439321312
 30
0.0
 11
3.270897428901125
 21
8.690943202301282
 31
0.0
  0
POINT
  5
29241
102
{ACAD_REACTORS
330
2976E
102
}
330
18
100
AcDbEntity
  8
0
100
AcDbPoint
 10
3.270897428901125
 20
8.618976320811297
 30
0.0
  0
LINE
  5
29242
330
18
100
AcDbEntity
  8
0
100
AcDbLine
 10
4.270897428901125
 20
8.742094461474735
 30
0.0
 11
4.270897428901125
 21
8.936295115920211
 31
0.0
  0
LINE
  5
29247
330
18
100
AcDbEntity
  8
0
100
AcDbLine
 10
4.664597428901124
 20
8.126193894736394
 30
0.0
 11
4.664597428901124
 21
8.270127657716363
 31
0.0
  0
LINE
  5
29248
330
18
100
AcDbEntity
  8
0
100
AcDbLine
 10
4.270897428901125
 20
8.126193894736394
 30
0.0
 11
4.270897428901125
 21
8.270127657716363
 31
0.0
  0
LINE
  5
29249
330
18
100
AcDbEntity
  8
0
100
AcDbLine
 10
3.877197428901126
 20
8.126193894736394
 30
0.0
 11
3.877197428901126
 21
8.270127657716363
 31
0.0
  0
MTEXT
  5
2924A
330
18
100
AcDbEntity
  8
0
100
AcDbMText
 10
3.837756312554994
 20
8.073329884496411
 30
0.0
 40
0.09
 41
3.043
 71
     1
 72
     5
  1
{\fArial|b0|i0|c0|p34;4}
  7
ROMANT
 73
     1
 44
1.0
1001
ACAD
1000
MTEXTBEGIN
1070
    73
1070
     1
1070
    44
1040
1.0
1070
    74
1070
     0
1000
MTEXTEND
  0
MTEXT
  5
2924B
330
18
100
AcDbEntity
  8
0
100
AcDbMText
 10
4.213601676115597
 20
8.079278294520909
 30
0.0
 40
0.09
 41
3.043
 71
     1
 72
     5
  1
{\fArial|b0|i0|c0|p34;5}
  7
ROMANT
 73
     1
 44
1.0
1001
ACAD
1000
MTEXTBEGIN
1070
    73
1070
     1
1070
    44
1040
1.0
1070
    74
1070
     0
1000
MTEXTEND
  0
LINE
  5
2924C
330
18
100
AcDbEntity
  8
0
100
AcDbLine
 10
4.270897428901125
 20
7.918039196969612
 30
0.0
 11
4.270897428901125
 21
8.013580655018763
 31
0.0
  0
MTEXT
  5
2924D
330
18
100
AcDbEntity
  8
0
100
AcDbMText
 10
4.625156312554992
 20
8.073329884496411
 30
0.0
 40
0.09
 41
3.043
 71
     1
 72
     5
  1
{\fArial|b0|i0|c0|p34;6}
  7
ROMANT
 73
     1
 44
1.0
1001
ACAD
1000
MTEXTBEGIN
1070
    73
1070
     1
1070
    44
1040
1.0
1070
    74
1070
     0
1000
MTEXTEND
  0
MTEXT
  5
2924E
102
{ACAD_REACTORS
330
2976E
102
}
330
18
100
AcDbEntity
  8
0
100
AcDbMText
 10
4.246152306100615
 20
8.500093839105828
 30
0.0
 40
0.09
 41
3.043
 71
     1
 72
     5
  1
{\fArial|b0|i0|c0|p34;2"}
  7
ROMANT
 73
     1
 44
1.0
1001
ACAD
1000
MTEXTBEGIN
1070
    73
1070
     1
1070
    44
1040
1.0
1070
    74
1070
     0
1000
MTEXTEND
  0
LINE
  5
29250
102
{ACAD_REACTORS
330
2976E
102
}
330
18
100
AcDbEntity
  8
0
100
AcDbLine
 10
4.270897428901125
 20
8.547009439321312
 30
0.0
 11
4.270897428901125
 21
8.690943202301282
 31
0.0
  0
LINE
  5
29251
330
18
100
AcDbEntity
  8
0
100
AcDbLine
 10
5.845697428901122
 20
8.126193894736394
 30
0.0
 11
5.845697428901122
 21
8.270127657716363
 31
0.0
  0
LINE
  5
29252
330
18
100
AcDbEntity
  8
0
100
AcDbLine
 10
5.451997428901123
 20
8.126193894736394
 30
0.0
 11
5.451997428901123
 21
8.270127657716363
 31
0.0
  0
LINE
  5
29253
330
18
100
AcDbEntity
  8
0
100
AcDbLine
 10
5.058297428901123
 20
8.126193894736394
 30
0.0
 11
5.058297428901123
 21
8.270127657716363
 31
0.0
  0
MTEXT
  5
29254
330
18
100
AcDbEntity
  8
0
100
AcDbMText
 10
5.018856312554991
 20
8.073329884496411
 30
0.0
 40
0.09
 41
3.043
 71
     1
 72
     5
  1
{\fArial|b0|i0|c0|p34;7}
  7
ROMANT
 73
     1
 44
1.0
1001
ACAD
1000
MTEXTBEGIN
1070
    73
1070
     1
1070
    44
1040
1.0
1070
    74
1070
     0
1000
MTEXTEND
  0
MTEXT
  5
29255
330
18
100
AcDbEntity
  8
0
100
AcDbMText
 10
5.41255631255499
 20
8.073329884496411
 30
0.0
 40
0.09
 41
3.043
 71
     1
 72
     5
  1
{\fArial|b0|i0|c0|p34;8}
  7
ROMANT
 73
     1
 44
1.0
1001
ACAD
1000
MTEXTBEGIN
1070
    73
1070
     1
1070
    44
1040
1.0
1070
    74
1070
     0
1000
MTEXTEND
  0
MTEXT
  5
29256
330
18
100
AcDbEntity
  8
0
100
AcDbMText
 10
5.818159389483017
 20
8.073329884496411
 30
0.0
 40
0.09
 41
3.043
 71
     1
 72
     5
  1
{\fArial|b0|i0|c0|p34;9}
  7
ROMANT
 73
     1
 44
1.0
1001
ACAD
1000
MTEXTBEGIN
1070
    73
1070
     1
1070
    44
1040
1.0
1070
    74
1070
     0
1000
MTEXTEND
  0
MTEXT
  5
29257
102
{ACAD_REACTORS
330
2976E
102
}
330
18
100
AcDbEntity
  8
0
100
AcDbMText
 10
5.246152306100615
 20
8.500093839105828
 30
0.0
 40
0.09
 41
3.043
 71
     1
 72
     5
  1
{\fArial|b0|i0|c0|p34;3"}
  7
ROMANT
 73
     1
 44
1.0
1001
ACAD
1000
MTEXTBEGIN
1070
    73
1070
     1
1070
    44
1040
1.0
1070
    74
1070
     0
1000
MTEXTEND
  0
LINE
  5
29258
102
{ACAD_REACTORS
330
2976E
102
}
330
18
100
AcDbEntity
  8
0
100
AcDbLine
 10
5.270897428901125
 20
8.547009439321312
 30
0.0
 11
5.270897428901125
 21
8.690943202301282
 31
0.0
  0
POINT
  5
29259
102
{ACAD_REACTORS
330
2976E
102
}
330
18
100
AcDbEntity
  8
0
100
AcDbPoint
 10
5.270897428901125
 20
8.618976320811297
 30
0.0
  0
LINE
  5
2925A
330
18
100
AcDbEntity
  8
0
100
AcDbLine
 10
0.5408974289011369
 20
10.32129511592025
 30
0.0
 11
0.5408974289011333
 21
11.02129511592025
 31
0.0
  0
LINE
  5
2925B
330
18
100
AcDbEntity
  8
0
100
AcDbLine
 10
4.270897428901125
 20
10.30263981508737
 30
0.0
 11
4.270897428901125
 21
11.02129511592025
 31
0.0
  0
LINE
  5
2925D
102
{ACAD_REACTORS
330
29346
102
}
330
18
100
AcDbEntity
  8
TITLE
  6
ACAD_ISO07W100
 48
0.05
100
AcDbLine
 10
8.02089742890114
 20
10.32129511592025
 30
0.0
 11
8.020897428901125
 21
0.7212951159202508
 31
0.0
  0
LINE
  5
2925E
330
18
100
AcDbEntity
  8
0
100
AcDbLine
 10
8.520897428901125
 20
11.02129511592025
 30
0.0
 11
8.520897428901125
 21
0.0212951159202515
 31
0.0
  0
LINE
  5
29261
330
18
100
AcDbEntity
  8
0
100
AcDbLine
 10
8.000897428901126
 20
9.225620744340446
 30
0.0
 11
8.000897428901133
 21
10.85129511592021
 31
0.0
  0
MTEXT
  5
29262
330
18
100
AcDbEntity
  8
0
100
AcDbMText
 10
4.742565708553065
 20
2.682039644764974
 30
0.0
 40
0.16
 41
3.043
 71
     1
 72
     5
  1
{\fArial|b0|i0|c0|p34;FRONT}
  7
ROMANT
 73
     1
 44
1.0
1001
ACAD
1000
MTEXTBEGIN
1070
    73
1070
     1
1070
    44
1040
1.0
1070
    74
1070
     0
1000
MTEXTEND
  0
MTEXT
  5
29263
330
18
100
AcDbEntity
  8
0
100
AcDbMText
 10
4.742565708553065
 20
2.402159051365903
 30
0.0
 40
0.16
 41
3.043
 71
     1
 72
     5
  1
{\fArial|b0|i0|c0|p34;FRONT}
  7
ROMANT
 73
     1
 44
1.0
1001
ACAD
1000
MTEXTBEGIN
1070
    73
1070
     1
1070
    44
1040
1.0
1070
    74
1070
     0
1000
MTEXTEND
  0
MTEXT
  5
29265
330
18
100
AcDbEntity
  8
0
100
AcDbMText
 10
3.047313859422033
 20
2.402159051365903
 30
0.0
 40
0.16
 41
3.043
 71
     1
 72
     5
  1
{\fArial|b0|i0|c0|p34;FRONT}
  7
ROMANT
 73
     1
 44
1.0
1001
ACAD
1000
MTEXTBEGIN
1070
    73
1070
     1
1070
    44
1040
1.0
1070
    74
1070
     0
1000
MTEXTEND
  0
MTEXT
  5
29266
330
18
100
AcDbEntity
  8
0
100
AcDbMText
 10
3.047313859422033
 20
2.682039644764974
 30
0.0
 40
0.16
 41
3.043
 71
     1
 72
     5
  1
{\fArial|b0|i0|c0|p34;FRONT}
  7
ROMANT
 73
     1
 44
1.0
1001
ACAD
1000
MTEXTBEGIN
1070
    73
1070
     1
1070
    44
1040
1.0
1070
    74
1070
     0
1000
MTEXTEND
  0
LINE
  5
29268
330
18
100
AcDbEntity
  8
0
100
AcDbLine
 10
7.950897428901125
 20
5.521295115920249
 30
0.0
 11
8.520897428901132
 21
5.521295115920249
 31
0.0
  0
LINE
  5
2926B
330
18
100
AcDbEntity
  8
0
100
AcDbLine
 10
7.168457841294666
 20
9.116295115920253
 30
0.0
 11
7.500897428901132
 21
9.116295115920253
 31
0.0
  0
MTEXT
  5
2926D
330
18
100
AcDbEntity
  8
0
100
AcDbMText
 10
7.838084776197929
 20
10.26374803841243
 30
0.0
 40
0.1
 41
2.513999999999999
 71
     3
 72
     5
  1
{\fArial|b0|i0|c0|p34;Document p/n:\P250-1213-001\PPage 1 of 1}
  7
ROMANT
 73
     1
 44
1.0
1001
ACAD
1000
MTEXTBEGIN
1070
    73
1070
     1
1070
    44
1040
1.0
1070
    74
1070
     0
1000
MTEXTEND
  0
LINE
  5
2926E
330
18
100
AcDbEntity
  8
0
100
AcDbLine
 10
6.239397428901117
 20
8.126193894736394
 30
0.0
 11
6.239397428901117
 21
8.270127657716363
 31
0.0
  0
MTEXT
  5
2926F
330
18
100
AcDbEntity
  8
0
100
AcDbMText
 10
6.182101676115596
 20
8.079278294520909
 30
0.0
 40
0.09
 41
3.043
 71
     1
 72
     5
  1
{\fArial|b0|i0|c0|p34;10}
  7
ROMANT
 73
     1
 44
1.0
1001
ACAD
1000
MTEXTBEGIN
1070
    73
1070
     1
1070
    44
1040
1.0
1070
    74
1070
     0
1000
MTEXTEND
  0
MTEXT
  5
29270
102
{ACAD_REACTORS
330
2976E
102
}
330
18
100
AcDbEntity
  8
0
100
AcDbMText
 10
6.246152306100615
 20
8.500093839105828
 30
0.0
 40
0.09
 41
3.043
 71
     1
 72
     5
  1
{\fArial|b0|i0|c0|p34;4"}
  7
ROMANT
 73
     1
 44
1.0
1001
ACAD
1000
MTEXTBEGIN
1070
    73
1070
     1
1070
    44
1040
1.0
1070
    74
1070
     0
1000
MTEXTEND
  0
LINE
  5
29271
102
{ACAD_REACTORS
330
2976E
102
}
330
18
100
AcDbEntity
  8
0
100
AcDbLine
 10
6.270897428901125
 20
8.547009439321312
 30
0.0
 11
6.270897428901125
 21
8.690943202301282
 31
0.0
  0
LINE
  5
29272
330
18
100
AcDbEntity
  8
0
100
AcDbLine
 10
7.500897428901119
 20
2.456295115920258
 30
0.0
 11
1.423337016507591
 21
2.456295115920254
 31
0.0
  0
ARC
  5
29273
330
18
100
AcDbEntity
  8
0
100
AcDbCircle
 10
1.040897428901133
 20
2.956295115920251
 30
0.0
 40
0.5
100
AcDbArc
 50
180.0
 51
270.0000000000001
  0
LINE
  5
29274
330
18
100
AcDbEntity
  8
0
100
AcDbLine
 10
0.5408974289011362
 20
8.616295115920262
 30
0.0
 11
0.5408974289011333
 21
2.956295115920251
 31
0.0
  0
ARC
  5
29275
330
18
100
AcDbEntity
  8
0
100
AcDbCircle
 10
1.040897428901132
 20
8.616295115920253
 30
0.0
 40
0.5
100
AcDbArc
 50
89.99999999999998
 51
180.0
  0
LINE
  5
29276
330
18
100
AcDbEntity
  8
0
100
AcDbLine
 10
1.040897428901133
 20
9.116295115920253
 30
0.0
 11
7.450897428901132
 21
9.116295115920253
 31
0.0
  0
ARC
  5
29277
330
18
100
AcDbEntity
  8
0
100
AcDbCircle
 10
7.500897428901132
 20
8.61629511592025
 30
0.0
 40
0.5
100
AcDbArc
 50
360.0
 51
89.99999999999998
  0
LINE
  5
29278
330
18
100
AcDbEntity
  8
0
100
AcDbLine
 10
8.000897428901133
 20
8.616295115920248
 30
0.0
 11
8.000897428901119
 21
2.956295115920257
 31
0.0
  0
ARC
  5
29279
330
18
100
AcDbEntity
  8
0
100
AcDbCircle
 10
7.500897428901119
 20
2.956295115920258
 30
0.0
 40
0.5
100
AcDbArc
 50
270.0000000000001
 51
359.9999999999999
  0
LINE
  5
292F6
330
18
100
AcDbEntity
  8
0
100
AcDbLine
 10
0.4478974289011326
 20
9.139446637232603
 30
0.0
 11
0.0208974289011295
 21
9.139446637232603
 31
0.0
  0
LINE
  5
292F8
330
18
100
AcDbEntity
  8
0
100
AcDbLine
 10
1.423337016507591
 20
2.456295115920254
 30
0.0
 11
1.04089742890116
 21
2.456295115920251
 31
0.0
  0
LINE
  5
292FE
330
18
100
AcDbEntity
  8
0
370
     9
100
AcDbLine
 10
8.000897428901126
 20
5.458795115920253
 30
0.0
 11
8.000897428901126
 21
5.441295115920249
 31
0.0
  0
LINE
  5
292FF
330
18
100
AcDbEntity
  8
0
370
     9
100
AcDbLine
 10
0.5408974289011298
 20
5.458795115920253
 30
0.0
 11
0.5408974289011298
 21
5.441295115920249
 31
0.0
  0
LINE
  5
29300
330
18
100
AcDbEntity
  8
0
100
AcDbLine
 10
7.820897428901126
 20
5.521295115920249
 30
0.0
 11
6.610256399213756
 21
5.521295115920249
 31
0.0
  0
SOLID
  5
29302
330
18
100
AcDbEntity
  8
0
100
AcDbTrace
 10
7.820897428901126
 20
5.551295115920249
 30
0.0
 11
7.820897428901126
 21
5.49129511592025
 31
0.0
 12
8.000897428901126
 22
5.521295115920249
 32
0.0
 13
8.000897428901126
 23
5.521295115920249
 33
0.0
  0
SOLID
  5
29303
330
18
100
AcDbEntity
  8
0
100
AcDbTrace
 10
0.7208974289011295
 20
5.551295115920249
 30
0.0
 11
0.7208974289011295
 21
5.49129511592025
 31
0.0
 12
0.5408974289011298
 22
5.521295115920249
 32
0.0
 13
0.5408974289011298
 23
5.521295115920249
 33
0.0
  0
MTEXT
  5
29304
330
18
100
AcDbEntity
  8
0
100
AcDbMText
 10
5.890256399213757
 20
5.521295115920249
 30
0.0
 40
0.14
 41
0.0
 71
     5
 72
     1
  1
{\fArial|b0|i0|c0|p34;7.460"\P [189.48mm]}
  7
ROMANS
 73
     1
 44
1.0
1001
ACAD
1000
MTEXTBEGIN
1070
    73
1070
     1
1070
    44
1040
1.0
1070
    74
1070
     0
1000
MTEXTEND
  0
LINE
  5
29307
330
18
100
AcDbEntity
  8
0
100
AcDbLine
 10
0.7208974289011295
 20
5.521295115920249
 30
0.0
 11
1.174784310972469
 21
5.521295115920249
 31
0.0
  0
LINE
  5
2930E
330
18
100
AcDbEntity
  8
0
100
AcDbLine
 10
1.825327418200728
 20
5.521295115920249
 30
0.0
 11
1.961682856734981
 21
5.521295115920249
 31
0.0
  0
LINE
  5
29310
330
18
100
AcDbEntity
  8
0
100
AcDbLine
 10
2.29450262678991
 20
5.521295115920252
 30
0.0
 11
5.170256399213759
 21
5.521295115920249
 31
0.0
  0
LINE
  5
29317
330
18
100
AcDbEntity
  8
0
100
AcDbLine
 10
0.4478974289011362
 20
2.456295115920255
 30
0.0
 11
0.0208974289011295
 21
2.456295115920254
 31
0.0
  0
LINE
  5
29320
330
18
100
AcDbEntity
  8
0
100
AcDbLine
 10
8.000897428901133
 20
10.32129511592025
 30
0.0
 11
8.000897428901133
 21
11.02129511592025
 31
0.0
  0
LINE
  5
29324
330
18
100
AcDbEntity
  8
0
100
AcDbLine
 10
8.093897428901133
 20
9.125460371414156
 30
0.0
 11
8.520897428901125
 21
9.125460371414156
 31
0.0
  0
LINE
  5
29326
330
18
100
AcDbEntity
  8
0
100
AcDbLine
 10
8.093897428901133
 20
2.456295115920258
 30
0.0
 11
8.520897428901125
 21
2.456295115920258
 31
0.0
  0
LINE
  5
29327
330
18
100
AcDbEntity
  8
0
100
AcDbLine
 10
4.333397428901125
 20
2.456295115920256
 30
0.0
 11
4.350897428901127
 21
2.456295115920256
 31
0.0
  0
LINE
  5
29329
330
18
100
AcDbEntity
  8
0
100
AcDbLine
 10
4.270897428901129
 20
2.636295115920256
 30
0.0
 11
4.270897428901129
 21
3.772130643955963
 31
0.0
  0
LINE
  5
2932A
330
18
100
AcDbEntity
  8
0
100
AcDbLine
 10
4.270897428901127
 20
7.883997608018333
 30
0.0
 11
4.270897428901132
 21
4.892460019556404
 31
0.0
  0
SOLID
  5
2932B
330
18
100
AcDbEntity
  8
0
100
AcDbTrace
 10
4.240897428901128
 20
2.636295115920256
 30
0.0
 11
4.30089742890113
 21
2.636295115920256
 31
0.0
 12
4.270897428901129
 22
2.456295115920256
 32
0.0
 13
4.270897428901129
 23
2.456295115920256
 33
0.0
  0
SOLID
  5
2932C
330
18
100
AcDbEntity
  8
0
100
AcDbTrace
 10
4.240897428901131
 20
8.936295115920211
 30
0.0
 11
4.300897428901134
 21
8.936295115920211
 31
0.0
 12
4.270897428901132
 22
9.116295115920211
 32
0.0
 13
4.270897428901132
 23
9.116295115920211
 33
0.0
  0
MTEXT
  5
2932D
330
18
100
AcDbEntity
  8
0
100
AcDbMText
 10
4.270897428901129
 20
4.166416358241683
 30
0.0
 40
0.14
 41
0.0
 71
     5
 72
     1
  1
{\fArial|b0|i0|c0|p34;6.660"\P [169.16mm]}
  7
ROMANS
 73
     1
 44
1.0
1001
ACAD
1000
MTEXTBEGIN
1070
    73
1070
     1
1070
    44
1040
1.0
1070
    74
1070
     0
1000
MTEXTEND
  0
LINE
  5
29332
330
18
100
AcDbEntity
  8
0
100
AcDbLine
 10
8.000897428901119
 20
2.36329511592025
 30
0.0
 11
8.000897428901119
 21
1.16623772365234
 31
0.0
  0
LINE
  5
29333
330
18
100
AcDbEntity
  8
0
100
AcDbLine
 10
8.000897428901119
 20
1.16623772365234
 30
0.0
 11
8.000897428901119
 21
0.0212951159202515
 31
0.0
  0
MTEXT
  5
29595
330
18
100
AcDbEntity
  8
0
100
AcDbMText
 10
4.321613038783286
 20
1.937244924912468
 30
0.0
 40
0.1
 41
3.043
 71
     1
 72
     5
  1
{\fArial Narrow|b0|i0|c0|p34;CNK202     CNK202S}
  7
ROMANT
 73
     1
 44
1.0
1001
ACAD
1000
MTEXTBEGIN
1070
    73
1070
     1
1070
    44
1040
1.0
1070
    74
1070
     0
1000
MTEXTEND
  0
LINE
  5
295E0
330
18
100
AcDbEntity
  8
0
100
AcDbLine
 10
7.410897428901132
 20
8.61629511592025
 30
0.0
 11
7.590897428901132
 21
8.61629511592025
 31
0.0
  0
LINE
  5
295E1
330
18
100
AcDbEntity
  8
0
100
AcDbLine
 10
7.500897428901132
 20
8.52629511592025
 30
0.0
 11
7.500897428901132
 21
8.70629511592025
 31
0.0
  0
LINE
  5
295E2
330
18
100
AcDbEntity
  8
0
100
AcDbLine
 10
7.410897428901132
 20
8.616295115920257
 30
0.0
 11
7.590897428901132
 21
8.61629511592026
 31
0.0
  0
LINE
  5
295E3
330
18
100
AcDbEntity
  8
0
100
AcDbLine
 10
7.500897428901128
 20
8.526295115920257
 30
0.0
 11
7.500897428901128
 21
8.70629511592026
 31
0.0
  0
ARC
  5
295E4
330
18
100
AcDbEntity
  8
0
  6
HIDDEN
370
     0
100
AcDbCircle
 10
7.500897428901132
 20
8.61629511592025
 30
0.0
 40
0.5
100
AcDbArc
 50
90.0
 51
0.0
  0
LINE
  5
295E5
330
18
100
AcDbEntity
  8
0
100
AcDbLine
 10
6.773669851813937
 20
7.837012422100654
 30
0.0
 11
6.953669851813937
 21
7.837012422100654
 31
0.0
  0
LINE
  5
295E6
330
18
100
AcDbEntity
  8
0
100
AcDbLine
 10
6.953669851813937
 20
7.837012422100654
 30
0.0
 11
7.110114475157707
 21
8.059798320724157
 31
0.0
  0
SOLID
  5
295E7
330
18
100
AcDbEntity
  8
0
100
AcDbTrace
 10
7.085563145957876
 20
8.077038745154014
 30
0.0
 11
7.134665804357537
 21
8.042557896294299
 31
0.0
 12
7.213557021736845
 22
8.20710629592313
 32
0.0
 13
7.213557021736845
 23
8.20710629592313
 33
0.0
  0
MTEXT
  5
295E8
330
18
100
AcDbEntity
  8
0
100
AcDbMText
 10
6.30711195329573
 20
7.698604809564868
 30
0.0
 40
0.14
 41
0.0
 71
     5
 72
     1
  1
{\fArial|b0|i0|c0|p34;4x R.500"\P [R12.70mm]}
  7
ROMANS
 73
     1
 44
1.0
1001
ACAD
1000
MTEXTBEGIN
1070
    73
1070
     1
1070
    44
1040
1.0
1070
    74
1070
     0
1000
MTEXTEND
  0
MTEXT
  5
295E9
330
18
100
AcDbEntity
  8
0
100
AcDbMText
 10
5.801093830699683
 20
7.438400656200828
 30
0.0
 40
0.14
 41
3.043
 71
     1
 72
     5
  1
{\fArial|b0|i0|c0|p34;1" DRILL BIT}
  7
ROMANT
 73
     1
 44
1.0
1001
ACAD
1000
MTEXTBEGIN
1070
    73
1070
     1
1070
    44
1040
1.0
1070
    74
1070
     0
1000
MTEXTEND
  0
ARC
  5
295EF
330
18
100
AcDbEntity
  8
0
  6
HIDDEN
370
     0
100
AcDbCircle
 10
7.500897428901119
 20
2.956295115920258
 30
0.0
 40
0.5
100
AcDbArc
 50
0.0
 51
270.0
  0
LINE
  5
295F0
330
18
100
AcDbEntity
  8
0
100
AcDbLine
 10
7.410897428901122
 20
2.956295115920258
 30
0.0
 11
7.590897428901122
 21
2.956295115920258
 31
0.0
  0
LINE
  5
295F1
330
18
100
AcDbEntity
  8
0
100
AcDbLine
 10
7.500897428901122
 20
2.866295115920258
 30
0.0
 11
7.500897428901122
 21
3.046295115920258
 31
0.0
  0
LINE
  5
295F2
330
18
100
AcDbEntity
  8
0
100
AcDbLine
 10
7.410897428901122
 20
2.956295115920265
 30
0.0
 11
7.590897428901122
 21
2.956295115920268
 31
0.0
  0
LINE
  5
295F3
330
18
100
AcDbEntity
  8
0
100
AcDbLine
 10
7.500897428901119
 20
2.866295115920265
 30
0.0
 11
7.500897428901119
 21
3.046295115920268
 31
0.0
  0
ARC
  5
295FD
330
18
100
AcDbEntity
  8
0
  6
HIDDEN
370
     0
100
AcDbCircle
 10
1.040897428901136
 20
8.616295115920262
 30
0.0
 40
0.5
100
AcDbArc
 50
180.0
 51
90.0
  0
LINE
  5
295FE
330
18
100
AcDbEntity
  8
0
100
AcDbLine
 10
1.130897428901132
 20
8.616295115920262
 30
0.0
 11
0.9508974289011327
 21
8.616295115920262
 31
0.0
  0
LINE
  5
295FF
330
18
100
AcDbEntity
  8
0
100
AcDbLine
 10
1.040897428901132
 20
8.706295115920262
 30
0.0
 11
1.040897428901132
 21
8.526295115920262
 31
0.0
  0
LINE
  5
29600
330
18
100
AcDbEntity
  8
0
100
AcDbLine
 10
1.130897428901132
 20
8.616295115920255
 30
0.0
 11
0.9508974289011327
 21
8.616295115920252
 31
0.0
  0
LINE
  5
29601
330
18
100
AcDbEntity
  8
0
100
AcDbLine
 10
1.040897428901136
 20
8.706295115920255
 30
0.0
 11
1.040897428901136
 21
8.526295115920252
 31
0.0
  0
ARC
  5
29613
330
18
100
AcDbEntity
  8
0
  6
HIDDEN
370
     0
100
AcDbCircle
 10
1.040897428901133
 20
2.956295115920251
 30
0.0
 40
0.5
100
AcDbArc
 50
270.0
 51
180.0
  0
LINE
  5
2961C
330
18
100
AcDbEntity
  8
0
100
AcDbLine
 10
0.9508974289011336
 20
2.956295115920243
 30
0.0
 11
1.130897428901133
 21
2.956295115920243
 31
0.0
  0
LINE
  5
2961D
330
18
100
AcDbEntity
  8
0
100
AcDbLine
 10
1.040897428901133
 20
2.866295115920243
 30
0.0
 11
1.040897428901133
 21
3.046295115920242
 31
0.0
  0
LINE
  5
2961E
330
18
100
AcDbEntity
  8
0
100
AcDbLine
 10
0.9508974289011336
 20
2.95629511592025
 30
0.0
 11
1.130897428901133
 21
2.956295115920253
 31
0.0
  0
LINE
  5
2961F
330
18
100
AcDbEntity
  8
0
100
AcDbLine
 10
1.040897428901129
 20
2.86629511592025
 30
0.0
 11
1.040897428901129
 21
3.046295115920253
 31
0.0
  0
ENDSEC
  0
SECTION
  2
OBJECTS
  0
DICTIONARY
  5
C
330
0
100
AcDbDictionary
281
     1
  3
ACAD_CIP_PREVIOUS_PRODUCT_INFO
350
29461
  3
ACAD_COLOR
350
29442
  3
ACAD_GROUP
350
D
  3
ACAD_LAYOUT
350
165D1
  3
ACAD_MATERIAL
350
29410
  3
ACAD_MLEADERSTYLE
350
29457
  3
ACAD_MLINESTYLE
350
E
  3
ACAD_PLOTSETTINGS
350
165D2
  3
ACAD_PLOTSTYLENAME
350
165CF
  3
ACAD_SCALELIST
350
29445
  3
ACAD_TABLESTYLE
350
29443
  3
ACAD_VISUALSTYLE
350
29429
  3
AcadDim
350
29021
  3
ACDB_RECOMPOSE_DATA
350
297B4
  3
ACDBVARIABLEDICTIONARY
350
13521
  3
CONTENTDICTIONARY
350
138DD
  3
DWGPROPS
350
297B5
  0
DICTIONARY
  5
29062
330
2
100
AcDbDictionary
280
     1
281
     1
  3
ACAD_LAYERFILTERS
360
29063
  3
ACAD_LAYERSTATES
360
29475
  0
DICTIONARY
  5
2946A
330
F
100
AcDbDictionary
280
     1
281
     1
  3
ADSK_XREC_LAYER_RECONCILED
360
2946B
  0
DICTIONARY
  5
2946C
330
C9
100
AcDbDictionary
280
     1
281
     1
  3
ADSK_XREC_LAYER_RECONCILED
360
2946D
  0
DICTIONARY
  5
2946E
330
167A5
100
AcDbDictionary
280
     1
281
     1
  3
ADSK_XREC_LAYER_RECONCILED
360
2946F
  0
DICTIONARY
  5
29470
330
167A9
100
AcDbDictionary
280
     1
281
     1
  3
ADSK_XREC_LAYER_RECONCILED
360
29471
  0
XRECORD
  5
29461
102
{ACAD_REACTORS
330
C
102
}
330
C
100
AcDbXrecord
280
     1
300
ACDLT
300
2012
300

  0
DICTIONARY
  5
29442
102
{ACAD_REACTORS
330
C
102
}
330
C
100
AcDbDictionary
281
     1
  0
DICTIONARY
  5
D
102
{ACAD_REACTORS
330
C
102
}
330
C
100
AcDbDictionary
281
     1
  3
*A1
350
29346
  3
*A2
350
2976E
  0
DICTIONARY
  5
165D1
102
{ACAD_REACTORS
330
C
102
}
330
C
100
AcDbDictionary
281
     1
  3
Layout1
350
165D4
  3
Model
350
165D3
  0
DICTIONARY
  5
29410
102
{ACAD_REACTORS
330
C
102
}
330
C
100
AcDbDictionary
281
     1
  3
ByBlock
350
29419
  3
ByLayer
350
29411
  3
Global
350
29421
  0
DICTIONARY
  5
29457
102
{ACAD_REACTORS
330
C
102
}
330
C
100
AcDbDictionary
281
     1
  3
Standard
350
29458
  0
DICTIONARY
  5
E
102
{ACAD_REACTORS
330
C
102
}
330
C
100
AcDbDictionary
281
     1
  3
STANDARD
350
1B
  0
DICTIONARY
  5
165D2
102
{ACAD_REACTORS
330
C
102
}
330
C
100
AcDbDictionary
281
     1
  0
ACDBDICTIONARYWDFLT
  5
165CF
102
{ACAD_REACTORS
330
C
102
}
330
C
100
AcDbDictionary
281
     1
  3
Normal
350
165D0
100
AcDbDictionaryWithDefault
340
165D0
  0
DICTIONARY
  5
29445
102
{ACAD_REACTORS
330
C
102
}
330
C
100
AcDbDictionary
281
     1
  3
A0
350
29446
  3
A1
350
29447
  3
A2
350
29448
  3
A3
350
29449
  3
A4
350
2944A
  3
A5
350
2944B
  3
A6
350
2944C
  3
A7
350
2944D
  3
A8
350
2944E
  3
A9
350
2944F
  3
B0
350
29450
  3
B1
350
29451
  3
B2
350
29452
  3
B3
350
29453
  3
B4
350
29454
  3
B5
350
29455
  3
B6
350
29456
  0
DICTIONARY
  5
29443
102
{ACAD_REACTORS
330
C
102
}
330
C
100
AcDbDictionary
281
     1
  3
Standard
350
29444
  0
DICTIONARY
  5
29429
102
{ACAD_REACTORS
330
C
102
}
330
C
100
AcDbDictionary
281
     1
  3
2dWireframe
350
2942F
  3
Basic
350
2942E
  3
Brighten
350
29435
  3
ColorChange
350
29439
  3
Conceptual
350
29432
  3
Dim
350
29434
  3
EdgeColorOff
350
29441
  3
Facepattern
350
29438
  3
Flat
350
2942A
  3
FlatWithEdges
350
2942B
  3
Gouraud
350
2942C
  3
GouraudWithEdges
350
2942D
  3
Hidden
350
29431
  3
JitterOff
350
2943F
  3
Linepattern
350
29437
  3
OverhangOff
350
29440
  3
Realistic
350
29433
  3
Shaded
350
2943E
  3
Shaded with edges
350
2943D
  3
Shades of Gray
350
2943A
  3
Sketchy
350
2943B
  3
Thicken
350
29436
  3
Wireframe
350
29430
  3
X-Ray
350
2943C
  0
XRECORD
  5
29021
102
{ACAD_REACTORS
330
C
102
}
330
C
100
AcDbXrecord
280
     1
 90
   990106
  3

 60
     0
 61
     0
 62
     1
 63
     3
 64
     0
 65
     0
 66
     0
 67
     3
 68
     1
 69
     0
 70
     0
 71
     0
 72
     0
 40
0.0
170
     0
  0
XRECORD
  5
297B4
102
{ACAD_REACTORS
330
C
102
}
330
C
100
AcDbXrecord
280
     1
 90
        1
330
29444
  0
DICTIONARY
  5
13521
102
{ACAD_REACTORS
330
C
102
}
330
C
100
AcDbDictionary
281
     1
  3
CANNOSCALE
350
2949A
  3
CMLEADERSTYLE
350
29498
  3
CTABLESTYLE
350
29497
  3
DIMASSOC
350
294F8
  3
INDEXCTL
350
294F7
  3
LAYEREVAL
350
2949C
  3
LAYERNOTIFY
350
2949D
  3
LIGHTINGUNITS
350
2949B
  3
MSLTSCALE
350
29499
  3
SORTENTS
350
13522
  3
XCLIPFRAME
350
294F9
  0
DICTIONARY
  5
138DD
102
{ACAD_REACTORS
330
C
102
}
330
C
100
AcDbDictionary
281
     1
  0
XRECORD
  5
297B5
102
{ACAD_REACTORS
330
C
102
}
330
C
100
AcDbXrecord
280
     1
  1
DWGPROPS COOKIE
  2

  3

  4

  6

  7

  8
vika
  9

300
=
301
=
302
=
303
=
304
=
305
=
306
=
307
=
308
=
309
=
 40
2.894256296296296
 41
2449371.614251504
 42
2457941.521346702
  1

 90
        0
  0
DICTIONARY
  5
29063
102
{ACAD_REACTORS
330
29062
102
}
330
29062
100
AcDbDictionary
280
     1
281
     1
  3
mother brd
360
29064
  0
DICTIONARY
  5
29475
102
{ACAD_REACTORS
330
29062
102
}
330
29062
100
AcDbDictionary
281
     1
  0
XRECORD
  5
2946B
102
{ACAD_REACTORS
330
2946A
102
}
330
2946A
100
AcDbXrecord
280
     1
290
     1
  0
XRECORD
  5
2946D
102
{ACAD_REACTORS
330
2946C
102
}
330
2946C
100
AcDbXrecord
280
     1
290
     1
  0
XRECORD
  5
2946F
102
{ACAD_REACTORS
330
2946E
102
}
330
2946E
100
AcDbXrecord
280
     1
290
     1
  0
XRECORD
  5
29471
102
{ACAD_REACTORS
330
29470
102
}
330
29470
100
AcDbXrecord
280
     1
290
     1
  0
GROUP
  5
29346
102
{ACAD_REACTORS
330
D
102
}
330
D
100
AcDbGroup
300

 70
     1
 71
     1
340
29179
340
29180
340
29178
340
2925D
  0
GROUP
  5
2976E
102
{ACAD_REACTORS
330
D
102
}
330
D
100
AcDbGroup
300

 70
     1
 71
     1
340
2917A
340
2924E
340
2923B
340
2923E
340
2923D
340
2923F
340
29240
340
29241
340
29250
340
29257
340
29258
340
29259
340
29270
340
29271
  0
LAYOUT
  5
165D4
102
{ACAD_XDICTIONARY
360
297B7
102
}
102
{ACAD_REACTORS
330
165D1
102
}
330
165D1
100
AcDbPlotSettings
  1

  2
Xerox DocuPrint P12
  4

  6

 40
0.0
 41
0.0
 42
0.0
 43
0.0
 44
0.0
 45
0.0
 46
0.0
 47
0.0
 48
0.0
 49
0.0
140
0.0
141
0.0
142
1.0
143
1.0
 70
   688
 72
     0
 73
     0
 74
     5
  7
monochrome.ctb
 75
    16
147
1.0
148
0.0
149
0.0
100
AcDbLayout
  1
Layout1
 70
     1
 71
     1
 10
0.0
 20
0.0
 11
12.0
 21
9.0
 12
0.0
 22
0.0
 32
0.0
 14
1.000000000000000E+20
 24
1.000000000000000E+20
 34
1.000000000000000E+20
 15
-1.000000000000000E+20
 25
-1.000000000000000E+20
 35
-1.000000000000000E+20
146
0.0
 13
0.0
 23
0.0
 33
0.0
 16
1.0
 26
0.0
 36
0.0
 17
0.0
 27
1.0
 37
0.0
 76
     0
330
15
  0
LAYOUT
  5
165D3
102
{ACAD_XDICTIONARY
360
2947A
102
}
102
{ACAD_REACTORS
330
165D1
102
}
330
165D1
100
AcDbPlotSettings
  1

  2
Adobe PDF
  4
Letter
  6

 40
3.174999952316284
 41
3.174999952316284
 42
3.175003051757812
 43
3.17498779296875
 44
215.8999938964844
 45
279.3999938964844
 46
-3.302
 47
-3.047999999999999
 48
0.0208974289011295
 49
0.0212951159202515
140
8.520897428901125
141
11.02129511592025
142
1.0
143
1.0
 70
 11956
 72
     0
 73
     0
 74
     4
  7
monochrome.ctb
 75
    16
147
1.0
148
-0.5307946940886879
149
-0.5408959443743872
100
AcDbLayout
  1
Model
 70
     1
 71
     0
 10
0.0
 20
0.0
 11
12.0
 21
9.0
 12
0.0
 22
0.0
 32
0.0
 14
0.0
 24
0.0
 34
0.0
 15
0.0
 25
0.0
 35
0.0
146
0.0
 13
0.0
 23
0.0
 33
0.0
 16
1.0
 26
0.0
 36
0.0
 17
0.0
 27
1.0
 37
0.0
 76
     0
330
18
331
2940E
  0
MATERIAL
  5
29419
102
{ACAD_XDICTIONARY
360
2941A
102
}
102
{ACAD_REACTORS
330
29410
102
}
330
29410
100
AcDbMaterial
  1
ByBlock
 72
     0
 43
0.0208333333333333
 43
0.0
 43
0.0
 43
0.0
 43
0.0
 43
0.0208333333333333
 43
0.0
 43
0.0
 43
0.0
 43
0.0
 43
1.0
 43
0.0
 43
0.0
 43
0.0
 43
0.0
 43
1.0
 77
     0
 47
0.0208333333333333
 47
0.0
 47
0.0
 47
0.0
 47
0.0
 47
0.0208333333333333
 47
0.0
 47
0.0
 47
0.0
 47
0.0
 47
1.0
 47
0.0
 47
0.0
 47
0.0
 47
0.0
 47
1.0
171
     0
 49
0.0208333333333333
 49
0.0
 49
0.0
 49
0.0
 49
0.0
 49
0.0208333333333333
 49
0.0
 49
0.0
 49
0.0
 49
0.0
 49
1.0
 49
0.0
 49
0.0
 49
0.0
 49
0.0
 49
1.0
175
     0
142
0.0208333333333333
142
0.0
142
0.0
142
0.0
142
0.0
142
0.0208333333333333
142
0.0
142
0.0
142
0.0
142
0.0
142
1.0
142
0.0
142
0.0
142
0.0
142
0.0
142
1.0
179
     0
144
0.0208333333333333
144
0.0
144
0.0
144
0.0
144
0.0
144
0.0208333333333333
144
0.0
144
0.0
144
0.0
144
0.0
144
1.0
144
0.0
144
0.0
144
0.0
144
0.0
144
1.0
147
0.0208333333333333
147
0.0
147
0.0
147
0.0
147
0.0
147
0.0208333333333333
147
0.0
147
0.0
147
0.0
147
0.0
147
1.0
147
0.0
147
0.0
147
0.0
147
0.0
147
1.0
  0
MATERIAL
  5
29411
102
{ACAD_XDICTIONARY
360
29412
102
}
102
{ACAD_REACTORS
330
29410
102
}
330
29410
100
AcDbMaterial
  1
ByLayer
 72
     0
 43
0.0208333333333333
 43
0.0
 43
0.0
 43
0.0
 43
0.0
 43
0.0208333333333333
 43
0.0
 43
0.0
 43
0.0
 43
0.0
 43
1.0
 43
0.0
 43
0.0
 43
0.0
 43
0.0
 43
1.0
 77
     0
 47
0.0208333333333333
 47
0.0
 47
0.0
 47
0.0
 47
0.0
 47
0.0208333333333333
 47
0.0
 47
0.0
 47
0.0
 47
0.0
 47
1.0
 47
0.0
 47
0.0
 47
0.0
 47
0.0
 47
1.0
171
     0
 49
0.0208333333333333
 49
0.0
 49
0.0
 49
0.0
 49
0.0
 49
0.0208333333333333
 49
0.0
 49
0.0
 49
0.0
 49
0.0
 49
1.0
 49
0.0
 49
0.0
 49
0.0
 49
0.0
 49
1.0
175
     0
142
0.0208333333333333
142
0.0
142
0.0
142
0.0
142
0.0
142
0.0208333333333333
142
0.0
142
0.0
142
0.0
142
0.0
142
1.0
142
0.0
142
0.0
142
0.0
142
0.0
142
1.0
179
     0
144
0.0208333333333333
144
0.0
144
0.0
144
0.0
144
0.0
144
0.0208333333333333
144
0.0
144
0.0
144
0.0
144
0.0
144
1.0
144
0.0
144
0.0
144
0.0
144
0.0
144
1.0
147
0.0208333333333333
147
0.0
147
0.0
147
0.0
147
0.0
147
0.0208333333333333
147
0.0
147
0.0
147
0.0
147
0.0
147
1.0
147
0.0
147
0.0
147
0.0
147
0.0
147
1.0
  0
MATERIAL
  5
29421
102
{ACAD_XDICTIONARY
360
29422
102
}
102
{ACAD_REACTORS
330
29410
102
}
330
29410
100
AcDbMaterial
  1
Global
 72
     0
 43
0.0208333333333333
 43
0.0
 43
0.0
 43
0.0
 43
0.0
 43
0.0208333333333333
 43
0.0
 43
0.0
 43
0.0
 43
0.0
 43
1.0
 43
0.0
 43
0.0
 43
0.0
 43
0.0
 43
1.0
 77
     0
 47
0.0208333333333333
 47
0.0
 47
0.0
 47
0.0
 47
0.0
 47
0.0208333333333333
 47
0.0
 47
0.0
 47
0.0
 47
0.0
 47
1.0
 47
0.0
 47
0.0
 47
0.0
 47
0.0
 47
1.0
171
     0
 49
0.0208333333333333
 49
0.0
 49
0.0
 49
0.0
 49
0.0
 49
0.0208333333333333
 49
0.0
 49
0.0
 49
0.0
 49
0.0
 49
1.0
 49
0.0
 49
0.0
 49
0.0
 49
0.0
 49
1.0
175
     0
142
0.0208333333333333
142
0.0
142
0.0
142
0.0
142
0.0
142
0.0208333333333333
142
0.0
142
0.0
142
0.0
142
0.0
142
1.0
142
0.0
142
0.0
142
0.0
142
0.0
142
1.0
179
     0
144
0.0208333333333333
144
0.0
144
0.0
144
0.0
144
0.0
144
0.0208333333333333
144
0.0
144
0.0
144
0.0
144
0.0
144
1.0
144
0.0
144
0.0
144
0.0
144
0.0
144
1.0
147
0.0208333333333333
147
0.0
147
0.0
147
0.0
147
0.0
147
0.0208333333333333
147
0.0
147
0.0
147
0.0
147
0.0
147
1.0
147
0.0
147
0.0
147
0.0
147
0.0
147
1.0
  0
MLEADERSTYLE
  5
29458
102
{ACAD_XDICTIONARY
360
297B2
102
}
102
{ACAD_REACTORS
330
29457
102
}
330
29457
100
AcDbMLeaderStyle
170
     2
171
     1
172
     0
 90
        2
 40
0.0
 41
0.0
173
     1
 91
-1056964608
340
12
 92
       -2
290
     1
 42
0.09
291
     1
 43
0.36
  3
Standard
 44
0.18
300

342
10
174
     1
178
     6
175
     1
176
     0
 93
-1056964608
 45
0.18
292
     0
297
     0
 46
0.18
 94
-1056964608
 47
1.0
 49
1.0
140
1.0
293
     1
141
0.0
294
     1
177
     0
142
1.0
295
     0
296
     0
143
0.125
1001
ACAD_MLEADERVER
1070
     2
  0
MLINESTYLE
  5
1B
102
{ACAD_REACTORS
330
E
102
}
330
E
100
AcDbMlineStyle
  2
STANDARD
 70
     0
  3

 62
     0
 51
90.0
 52
90.0
 71
     2
 49
0.5
 62
   256
  6
BYLAYER
 49
-0.5
 62
   256
  6
BYLAYER
  0
ACDBPLACEHOLDER
  5
165D0
102
{ACAD_REACTORS
330
165CF
102
}
330
165CF
  0
SCALE
  5
29446
102
{ACAD_REACTORS
330
29445
102
}
330
29445
100
AcDbScale
 70
     0
300
1:1
140
1.0
141
1.0
290
     1
  0
SCALE
  5
29447
102
{ACAD_REACTORS
330
29445
102
}
330
29445
100
AcDbScale
 70
     0
300
1/128" = 1'-0"
140
0.0078125
141
12.0
290
     0
  0
SCALE
  5
29448
102
{ACAD_REACTORS
330
29445
102
}
330
29445
100
AcDbScale
 70
     0
300
1/64" = 1'-0"
140
0.015625
141
12.0
290
     0
  0
SCALE
  5
29449
102
{ACAD_REACTORS
330
29445
102
}
330
29445
100
AcDbScale
 70
     0
300
1/32" = 1'-0"
140
0.03125
141
12.0
290
     0
  0
SCALE
  5
2944A
102
{ACAD_REACTORS
330
29445
102
}
330
29445
100
AcDbScale
 70
     0
300
1/16" = 1'-0"
140
0.0625
141
12.0
290
     0
  0
SCALE
  5
2944B
102
{ACAD_REACTORS
330
29445
102
}
330
29445
100
AcDbScale
 70
     0
300
3/32" = 1'-0"
140
0.09375
141
12.0
290
     0
  0
SCALE
  5
2944C
102
{ACAD_REACTORS
330
29445
102
}
330
29445
100
AcDbScale
 70
     0
300
1/8" = 1'-0"
140
0.125
141
12.0
290
     0
  0
SCALE
  5
2944D
102
{ACAD_REACTORS
330
29445
102
}
330
29445
100
AcDbScale
 70
     0
300
3/16" = 1'-0"
140
0.1875
141
12.0
290
     0
  0
SCALE
  5
2944E
102
{ACAD_REACTORS
330
29445
102
}
330
29445
100
AcDbScale
 70
     0
300
1/4" = 1'-0"
140
0.25
141
12.0
290
     0
  0
SCALE
  5
2944F
102
{ACAD_REACTORS
330
29445
102
}
330
29445
100
AcDbScale
 70
     0
300
3/8" = 1'-0"
140
0.375
141
12.0
290
     0
  0
SCALE
  5
29450
102
{ACAD_REACTORS
330
29445
102
}
330
29445
100
AcDbScale
 70
     0
300
1/2" = 1'-0"
140
0.5
141
12.0
290
     0
  0
SCALE
  5
29451
102
{ACAD_REACTORS
330
29445
102
}
330
29445
100
AcDbScale
 70
     0
300
3/4" = 1'-0"
140
0.75
141
12.0
290
     0
  0
SCALE
  5
29452
102
{ACAD_REACTORS
330
29445
102
}
330
29445
100
AcDbScale
 70
     0
300
1" = 1'-0"
140
1.0
141
12.0
290
     0
  0
SCALE
  5
29453
102
{ACAD_REACTORS
330
29445
102
}
330
29445
100
AcDbScale
 70
     0
300
1-1/2" = 1'-0"
140
1.5
141
12.0
290
     0
  0
SCALE
  5
29454
102
{ACAD_REACTORS
330
29445
102
}
330
29445
100
AcDbScale
 70
     0
300
3" = 1'-0"
140
3.0
141
12.0
290
     0
  0
SCALE
  5
29455
102
{ACAD_REACTORS
330
29445
102
}
330
29445
100
AcDbScale
 70
     0
300
6" = 1'-0"
140
6.0
141
12.0
290
     0
  0
SCALE
  5
29456
102
{ACAD_REACTORS
330
29445
102
}
330
29445
100
AcDbScale
 70
     0
300
1'-0" = 1'-0"
140
12.0
141
12.0
290
     0
  0
TABLESTYLE
  5
29444
102
{ACAD_XDICTIONARY
360
297B0
102
}
102
{ACAD_REACTORS
330
29443
102
}
330
29443
100
AcDbTableStyle
  3
Standard
 70
     0
 71
     0
 40
0.06
 41
0.06
280
     0
281
     0
  7
STANDARD
140
0.18
170
     2
 62
     0
 63
     7
283
     0
274
    -2
284
     1
 64
     0
275
    -2
285
     1
 65
     0
276
    -2
286
     1
 66
     0
277
    -2
287
     1
 67
     0
278
    -2
288
     1
 68
     0
279
    -2
289
     1
 69
     0
  7
STANDARD
140
0.25
170
     5
 62
     0
 63
     7
283
     0
274
    -2
284
     1
 64
     0
275
    -2
285
     1
 65
     0
276
    -2
286
     1
 66
     0
277
    -2
287
     1
 67
     0
278
    -2
288
     1
 68
     0
279
    -2
289
     1
 69
     0
  7
STANDARD
140
0.18
170
     5
 62
     0
 63
     7
283
     0
274
    -2
284
     1
 64
     0
275
    -2
285
     1
 65
     0
276
    -2
286
     1
 66
     0
277
    -2
287
     1
 67
     0
278
    -2
288
     1
 68
     0
279
    -2
289
     1
 69
     0
  0
VISUALSTYLE
  5
2942F
102
{ACAD_XDICTIONARY
360
297C6
102
}
102
{ACAD_REACTORS
330
29429
102
}
330
29429
100
AcDbVisualStyle
  2
2dWireframe
 70
     4
 71
     0
 72
     2
 73
     0
 90
        0
 40
-0.6
 41
-30.0
 62
     5
 63
     7
 74
     1
 91
        4
 64
     7
 65
   257
 75
     1
175
     1
 42
1.0
 92
        0
 66
   257
 43
1.0
 76
     1
 77
     6
 78
     2
 67
     7
 79
     5
170
     0
171
     0
290
     0
174
     0
 93
        1
 44
0.0
173
     0
291
     0
 45
0.0
1001
ACAD
1000
AcDbSavedByObjectVersion
1070
     0
  0
VISUALSTYLE
  5
2942E
102
{ACAD_XDICTIONARY
360
297C4
102
}
102
{ACAD_REACTORS
330
29429
102
}
330
29429
100
AcDbVisualStyle
  2
Basic
 70
     7
 71
     1
 72
     0
 73
     1
 90
        0
 40
-0.6
 41
-30.0
 62
     5
 63
     7
 74
     0
 91
        4
 64
     7
 65
   257
 75
     1
175
     1
 42
1.0
 92
        8
 66
     7
 43
1.0
 76
     1
 77
     6
 78
     2
 67
     7
 79
     5
170
     0
171
     0
290
     0
174
     0
 93
        1
 44
0.0
173
     0
291
     1
 45
0.0
1001
ACAD
1000
AcDbSavedByObjectVersion
1070
     0
  0
VISUALSTYLE
  5
29435
102
{ACAD_XDICTIONARY
360
297D2
102
}
102
{ACAD_REACTORS
330
29429
102
}
330
29429
100
AcDbVisualStyle
  2
Brighten
 70
    12
 71
     2
 72
     2
 73
     0
 90
        0
 40
-0.6
 41
-30.0
 62
     5
 63
     7
 74
     1
 91
        4
 64
     7
 65
   257
 75
     1
175
     1
 42
1.0
 92
        8
 66
     7
 43
1.0
 76
     1
 77
     6
 78
     2
 67
     7
 79
     5
170
     0
171
     0
290
     0
174
     0
 93
        1
 44
50.0
173
     0
291
     1
 45
0.0
1001
ACAD
1000
AcDbSavedByObjectVersion
1070
     0
  0
VISUALSTYLE
  5
29439
102
{ACAD_XDICTIONARY
360
297DA
102
}
102
{ACAD_REACTORS
330
29429
102
}
330
29429
100
AcDbVisualStyle
  2
ColorChange
 70
    16
 71
     2
 72
     2
 73
     3
 90
        0
 40
-0.6
 41
-30.0
 62
     5
 63
     8
 74
     1
 91
        4
 64
     7
 65
   257
 75
     1
175
     1
 42
1.0
 92
        8
 66
     8
 43
1.0
 76
     1
 77
     6
 78
     2
 67
     7
 79
     5
170
     0
171
     0
290
     0
174
     0
 93
        1
 44
0.0
173
     0
291
     1
 45
0.0
1001
ACAD
1000
AcDbSavedByObjectVersion
1070
     0
  0
VISUALSTYLE
  5
29432
102
{ACAD_XDICTIONARY
360
297CC
102
}
102
{ACAD_REACTORS
330
29429
102
}
330
29429
100
AcDbVisualStyle
  2
Conceptual
 70
     9
 71
     3
 72
     2
 73
     0
 90
        0
 40
-0.6
 41
-30.0
 62
     5
 63
     7
 74
     2
 91
        2
 64
     7
 65
   257
 75
     1
175
     1
 42
179.0
 92
        8
 66
     7
 43
1.0
 76
     1
 77
     6
 78
     2
 67
     7
 79
     3
170
     0
171
     0
290
     0
174
     0
 93
        1
 44
0.0
173
     0
291
     0
 45
0.0
1001
ACAD
1000
AcDbSavedByObjectVersion
1070
     0
  0
VISUALSTYLE
  5
29434
102
{ACAD_XDICTIONARY
360
297D0
102
}
102
{ACAD_REACTORS
330
29429
102
}
330
29429
100
AcDbVisualStyle
  2
Dim
 70
    11
 71
     2
 72
     2
 73
     0
 90
        0
 40
-0.6
 41
-30.0
 62
     5
 63
     7
 74
     1
 91
        4
 64
     7
 65
   257
 75
     1
175
     1
 42
1.0
 92
        8
 66
     7
 43
1.0
 76
     1
 77
     6
 78
     2
 67
     7
 79
     5
170
     0
171
     0
290
     0
174
     0
 93
        1
 44
-50.0
173
     0
291
     1
 45
0.0
1001
ACAD
1000
AcDbSavedByObjectVersion
1070
     0
  0
VISUALSTYLE
  5
29441
102
{ACAD_XDICTIONARY
360
297EA
102
}
102
{ACAD_REACTORS
330
29429
102
}
330
29429
100
AcDbVisualStyle
  2
EdgeColorOff
 70
    22
 71
     2
 72
     2
 73
     0
 90
        0
 40
-0.6
 41
-30.0
 62
     5
 63
     7
 74
     1
 91
        4
 64
     7
 65
   257
 75
     1
175
     1
 42
1.0
 92
        8
 66
     7
 43
1.0
 76
     1
 77
     6
 78
     2
 67
     7
 79
     5
170
     0
171
     0
290
     0
174
     0
 93
        1
 44
0.0
173
     0
291
     1
 45
0.0
1001
ACAD
1000
AcDbSavedByObjectVersion
1070
     0
  0
VISUALSTYLE
  5
29438
102
{ACAD_XDICTIONARY
360
297D8
102
}
102
{ACAD_REACTORS
330
29429
102
}
330
29429
100
AcDbVisualStyle
  2
Facepattern
 70
    15
 71
     2
 72
     2
 73
     0
 90
        0
 40
-0.6
 41
-30.0
 62
     5
 63
     7
 74
     1
 91
        4
 64
     7
 65
   257
 75
     1
175
     1
 42
1.0
 92
        8
 66
     7
 43
1.0
 76
     1
 77
     6
 78
     2
 67
     7
 79
     5
170
     0
171
     0
290
     0
174
     0
 93
        1
 44
0.0
173
     0
291
     1
 45
0.0
1001
ACAD
1000
AcDbSavedByObjectVersion
1070
     0
  0
VISUALSTYLE
  5
2942A
102
{ACAD_XDICTIONARY
360
297BC
102
}
102
{ACAD_REACTORS
330
29429
102
}
330
29429
100
AcDbVisualStyle
  2
Flat
 70
     0
 71
     2
 72
     1
 73
     1
 90
        2
 40
-0.6
 41
30.0
 62
     5
 63
     7
 74
     0
 91
        0
 64
     7
 65
   257
 75
     1
175
     1
 42
1.0
 92
        8
 66
     7
 43
1.0
 76
     1
 77
     6
 78
     2
 67
     7
 79
     5
170
     0
171
     0
290
     0
174
     0
 93
       13
 44
0.0
173
     0
291
     1
 45
0.0
1001
ACAD
1000
AcDbSavedByObjectVersion
1070
     0
  0
VISUALSTYLE
  5
2942B
102
{ACAD_XDICTIONARY
360
297BE
102
}
102
{ACAD_REACTORS
330
29429
102
}
330
29429
100
AcDbVisualStyle
  2
FlatWithEdges
 70
     1
 71
     2
 72
     1
 73
     1
 90
        2
 40
-0.6
 41
30.0
 62
     5
 63
     7
 74
     1
 91
        0
 64
     7
 65
   257
 75
     1
175
     1
 42
1.0
 92
        0
 66
   257
 43
1.0
 76
     1
 77
     6
 78
     2
 67
     7
 79
     5
170
     0
171
     0
290
     0
174
     0
 93
       13
 44
0.0
173
     0
291
     1
 45
0.0
1001
ACAD
1000
AcDbSavedByObjectVersion
1070
     0
  0
VISUALSTYLE
  5
2942C
102
{ACAD_XDICTIONARY
360
297C0
102
}
102
{ACAD_REACTORS
330
29429
102
}
330
29429
100
AcDbVisualStyle
  2
Gouraud
 70
     2
 71
     2
 72
     2
 73
     1
 90
        2
 40
-0.6
 41
30.0
 62
     5
 63
     7
 74
     0
 91
        0
 64
     7
 65
   257
 75
     1
175
     1
 42
1.0
 92
        0
 66
     7
 43
1.0
 76
     1
 77
     6
 78
     2
 67
     7
 79
     5
170
     0
171
     0
290
     0
174
     0
 93
       13
 44
0.0
173
     0
291
     1
 45
0.0
1001
ACAD
1000
AcDbSavedByObjectVersion
1070
     0
  0
VISUALSTYLE
  5
2942D
102
{ACAD_XDICTIONARY
360
297C2
102
}
102
{ACAD_REACTORS
330
29429
102
}
330
29429
100
AcDbVisualStyle
  2
GouraudWithEdges
 70
     3
 71
     2
 72
     2
 73
     1
 90
        2
 40
-0.6
 41
30.0
 62
     5
 63
     7
 74
     1
 91
        0
 64
     7
 65
   257
 75
     1
175
     1
 42
1.0
 92
        0
 66
   257
 43
1.0
 76
     1
 77
     6
 78
     2
 67
     7
 79
     5
170
     0
171
     0
290
     0
174
     0
 93
       13
 44
0.0
173
     0
291
     1
 45
0.0
1001
ACAD
1000
AcDbSavedByObjectVersion
1070
     0
  0
VISUALSTYLE
  5
29431
102
{ACAD_XDICTIONARY
360
297CA
102
}
102
{ACAD_REACTORS
330
29429
102
}
330
29429
100
AcDbVisualStyle
  2
Hidden
 70
     6
 71
     1
 72
     2
 73
     2
 90
        0
 40
-0.6
 41
-30.0
 62
     5
 63
     7
 74
     2
 91
        2
 64
     7
 65
   257
 75
     2
175
     1
 42
40.0
 92
        0
 66
   257
 43
1.0
 76
     1
 77
     6
 78
     2
 67
     7
 79
     3
170
     0
171
     0
290
     0
174
     0
 93
        1
 44
0.0
173
     0
291
     0
 45
0.0
1001
ACAD
1000
AcDbSavedByObjectVersion
1070
     0
  0
VISUALSTYLE
  5
2943F
102
{ACAD_XDICTIONARY
360
297E6
102
}
102
{ACAD_REACTORS
330
29429
102
}
330
29429
100
AcDbVisualStyle
  2
JitterOff
 70
    20
 71
     2
 72
     2
 73
     0
 90
        0
 40
-0.6
 41
-30.0
 62
     5
 63
     7
 74
     1
 91
        4
 64
     7
 65
   257
 75
     1
175
     1
 42
1.0
 92
       10
 66
     7
 43
1.0
 76
     1
 77
     6
 78
     2
 67
     7
 79
     5
170
     0
171
     0
290
     0
174
     0
 93
        1
 44
0.0
173
     0
291
     1
 45
0.0
1001
ACAD
1000
AcDbSavedByObjectVersion
1070
     0
  0
VISUALSTYLE
  5
29437
102
{ACAD_XDICTIONARY
360
297D6
102
}
102
{ACAD_REACTORS
330
29429
102
}
330
29429
100
AcDbVisualStyle
  2
Linepattern
 70
    14
 71
     2
 72
     2
 73
     0
 90
        0
 40
-0.6
 41
-30.0
 62
     5
 63
     7
 74
     1
 91
        4
 64
     7
 65
   257
 75
     7
175
     7
 42
1.0
 92
        8
 66
     7
 43
1.0
 76
     1
 77
     6
 78
     2
 67
     7
 79
     5
170
     0
171
     0
290
     0
174
     0
 93
        1
 44
0.0
173
     0
291
     1
 45
0.0
1001
ACAD
1000
AcDbSavedByObjectVersion
1070
     0
  0
VISUALSTYLE
  5
29440
102
{ACAD_XDICTIONARY
360
297E8
102
}
102
{ACAD_REACTORS
330
29429
102
}
330
29429
100
AcDbVisualStyle
  2
OverhangOff
 70
    21
 71
     2
 72
     2
 73
     0
 90
        0
 40
-0.6
 41
-30.0
 62
     5
 63
     7
 74
     1
 91
        4
 64
     7
 65
   257
 75
     1
175
     1
 42
1.0
 92
        9
 66
     7
 43
1.0
 76
     1
 77
     6
 78
     2
 67
     7
 79
     5
170
     0
171
     0
290
     0
174
     0
 93
        1
 44
0.0
173
     0
291
     1
 45
0.0
1001
ACAD
1000
AcDbSavedByObjectVersion
1070
     0
  0
VISUALSTYLE
  5
29433
102
{ACAD_XDICTIONARY
360
297CE
102
}
102
{ACAD_REACTORS
330
29429
102
}
330
29429
100
AcDbVisualStyle
  2
Realistic
 70
     8
 71
     2
 72
     3
 73
     0
 90
        2
 40
-0.6
 41
30.0
 62
     5
 63
     7
 74
     0
 91
        0
 64
     7
 65
   257
 75
     1
175
     1
 42
1.0
 92
        8
 66
   257
 43
1.0
 76
     1
 77
     6
 78
     2
 67
     7
 79
     3
170
     0
171
     0
290
     0
174
     0
 93
       13
 44
0.0
173
     0
291
     0
 45
0.0
1001
ACAD
1000
AcDbSavedByObjectVersion
1070
     0
  0
VISUALSTYLE
  5
2943E
102
{ACAD_XDICTIONARY
360
297E4
102
}
102
{ACAD_REACTORS
330
29429
102
}
330
29429
100
AcDbVisualStyle
  2
Shaded
 70
    27
 71
     2
 72
     2
 73
     1
 90
        2
 40
-0.6
 41
30.0
 62
     5
 63
     7
 74
     0
 91
        4
 64
     7
 65
   257
 75
     1
175
     1
 42
1.0
 92
        8
 66
   257
 43
1.0
 76
     1
 77
     6
 78
     2
 67
     8
 79
     3
170
     0
171
     0
290
     0
174
     0
 93
        5
 44
0.0
173
     0
291
     0
 45
0.0
1001
ACAD
1000
AcDbSavedByObjectVersion
1070
     0
  0
VISUALSTYLE
  5
2943D
102
{ACAD_XDICTIONARY
360
297E2
102
}
102
{ACAD_REACTORS
330
29429
102
}
330
29429
100
AcDbVisualStyle
  2
Shaded with edges
 70
    26
 71
     2
 72
     2
 73
     1
 90
        2
 40
-0.6
 41
30.0
 62
     5
 63
     7
 74
     1
 91
       10
 64
     7
 65
   257
 75
     2
175
     1
 42
1.0
 92
        8
 66
   257
 43
1.0
 76
     1
 77
     6
 78
     2
 67
     7
 79
     3
170
     0
171
     0
290
     0
174
     0
 93
        5
 44
0.0
173
     0
291
     0
 45
0.0
1001
ACAD
1000
AcDbSavedByObjectVersion
1070
     0
  0
VISUALSTYLE
  5
2943A
102
{ACAD_XDICTIONARY
360
297DC
102
}
102
{ACAD_REACTORS
330
29429
102
}
330
29429
100
AcDbVisualStyle
  2
Shades of Gray
 70
    23
 71
     2
 72
     2
 73
     3
 90
        0
 40
-0.6
 41
-30.0
 62
     5
 63
     7
 74
     2
 91
        2
 64
     7
 65
     7
 75
     1
175
     1
 42
40.0
 92
        8
 66
     7
 43
1.0
 76
     1
 77
     6
 78
     2
 67
     7
 79
     3
170
     0
171
     0
290
     0
174
     0
 93
        1
 44
0.0
173
     0
291
     0
 45
0.0
1001
ACAD
1000
AcDbSavedByObjectVersion
1070
     0
  0
VISUALSTYLE
  5
2943B
102
{ACAD_XDICTIONARY
360
297DE
102
}
102
{ACAD_REACTORS
330
29429
102
}
330
29429
100
AcDbVisualStyle
  2
Sketchy
 70
    24
 71
     1
 72
     2
 73
     2
 90
        0
 40
-0.6
 41
-30.0
 62
     5
 63
     7
 74
     2
 91
        2
 64
     7
 65
     7
 75
     1
175
     1
 42
40.0
 92
       11
 66
     7
 43
1.0
 76
     1
 77
     6
 78
     2
 67
     7
 79
     6
170
     0
171
     0
290
     0
174
     0
 93
        1
 44
0.0
173
     0
291
     0
 45
0.0
1001
ACAD
1000
AcDbSavedByObjectVersion
1070
     0
  0
VISUALSTYLE
  5
29436
102
{ACAD_XDICTIONARY
360
297D4
102
}
102
{ACAD_REACTORS
330
29429
102
}
330
29429
100
AcDbVisualStyle
  2
Thicken
 70
    13
 71
     2
 72
     2
 73
     0
 90
        0
 40
-0.6
 41
-30.0
 62
     5
 63
     7
 74
     1
 91
        4
 64
     7
 65
   257
 75
     1
175
     1
 42
1.0
 92
       12
 66
     7
 43
1.0
 76
     1
 77
     6
 78
     2
 67
     7
 79
     5
170
     0
171
     0
290
     0
174
     0
 93
        1
 44
0.0
173
     0
291
     1
 45
0.0
1001
ACAD
1000
AcDbSavedByObjectVersion
1070
     0
  0
VISUALSTYLE
  5
29430
102
{ACAD_XDICTIONARY
360
297C8
102
}
102
{ACAD_REACTORS
330
29429
102
}
330
29429
100
AcDbVisualStyle
  2
Wireframe
 70
     5
 71
     0
 72
     2
 73
     0
 90
        0
 40
-0.6
 41
-30.0
 62
     5
 63
     7
 74
     1
 91
        4
 64
     7
 65
   257
 75
     1
175
     1
 42
1.0
 92
        0
 66
   257
 43
1.0
 76
     1
 77
     6
 78
     2
 67
     7
 79
     3
170
     0
171
     0
290
     0
174
     0
 93
        1
 44
0.0
173
     0
291
     0
 45
0.0
1001
ACAD
1000
AcDbSavedByObjectVersion
1070
     0
  0
VISUALSTYLE
  5
2943C
102
{ACAD_XDICTIONARY
360
297E0
102
}
102
{ACAD_REACTORS
330
29429
102
}
330
29429
100
AcDbVisualStyle
  2
X-Ray
 70
    25
 71
     2
 72
     2
 73
     1
 90
        1
 40
0.5
 41
-30.0
 62
     5
 63
     7
 74
     1
 91
        0
 64
     7
 65
   257
 75
     1
175
     1
 42
1.0
 92
        8
 66
     7
 43
1.0
 76
     1
 77
     6
 78
     2
 67
     7
 79
     3
170
     0
171
     0
290
     0
174
     0
 93
       13
 44
0.0
173
     0
291
     0
 45
0.0
1001
ACAD
1000
AcDbSavedByObjectVersion
1070
     0
  0
DICTIONARYVAR
  5
2949A
102
{ACAD_REACTORS
330
13521
102
}
330
13521
100
DictionaryVariables
280
     0
  1
1:1
  0
DICTIONARYVAR
  5
29498
102
{ACAD_REACTORS
330
13521
102
}
330
13521
100
DictionaryVariables
280
     0
  1
STANDARD
  0
DICTIONARYVAR
  5
29497
102
{ACAD_REACTORS
330
13521
102
}
330
13521
100
DictionaryVariables
280
     0
  1
STANDARD
  0
DICTIONARYVAR
  5
294F8
102
{ACAD_REACTORS
330
13521
102
}
330
13521
100
DictionaryVariables
280
     0
  1
1
  0
DICTIONARYVAR
  5
294F7
102
{ACAD_REACTORS
330
13521
102
}
330
13521
100
DictionaryVariables
280
     0
  1
0
  0
DICTIONARYVAR
  5
2949C
102
{ACAD_REACTORS
330
13521
102
}
330
13521
100
DictionaryVariables
280
     0
  1
1
  0
DICTIONARYVAR
  5
2949D
102
{ACAD_REACTORS
330
13521
102
}
330
13521
100
DictionaryVariables
280
     0
  1
15
  0
DICTIONARYVAR
  5
2949B
102
{ACAD_REACTORS
330
13521
102
}
330
13521
100
DictionaryVariables
280
     0
  1
0
  0
DICTIONARYVAR
  5
29499
102
{ACAD_REACTORS
330
13521
102
}
330
13521
100
DictionaryVariables
280
     0
  1
0
  0
DICTIONARYVAR
  5
13522
102
{ACAD_REACTORS
330
13521
102
}
330
13521
100
DictionaryVariables
280
     0
  1
96
  0
DICTIONARYVAR
  5
294F9
102
{ACAD_REACTORS
330
13521
102
}
330
13521
100
DictionaryVariables
280
     0
  1
2
  0
XRECORD
  5
29064
102
{ACAD_REACTORS
330
29063
102
}
330
29063
100
AcDbXrecord
280
     1
  1
mother brd
  1
new mother brd
  1
*
  1
*
 70
     0
  1
*
  1
*
  0
DICTIONARY
  5
297B7
330
165D4
100
AcDbDictionary
280
     1
281
     1
  3
ACAD_XREC_ROUNDTRIP
360
297B8
  0
DICTIONARY
  5
2947A
330
165D3
100
AcDbDictionary
280
     1
281
     1
  3
ACAD_XREC_ROUNDTRIP
360
297B6
  3
ADSK_XREC_LAYOUTTHUMBNAIL
360
2947B
  0
DICTIONARY
  5
2941A
330
29419
100
AcDbDictionary
280
     1
281
     1
  3
ACAD_XREC_ROUNDTRIP
360
297BA
  3
BUMPTILE
360
2941C
  3
DIFFUSETILE
360
2941B
  3
OPACITYTILE
360
2941F
  3
REFLECTIONTILE
360
2941E
  3
REFRACTIONTILE
360
29420
  3
SPECULARTILE
360
2941D
  0
DICTIONARY
  5
29412
330
29411
100
AcDbDictionary
280
     1
281
     1
  3
ACAD_XREC_ROUNDTRIP
360
297B9
  3
BUMPTILE
360
29414
  3
DIFFUSETILE
360
29413
  3
OPACITYTILE
360
29417
  3
REFLECTIONTILE
360
29416
  3
REFRACTIONTILE
360
29418
  3
SPECULARTILE
360
29415
  0
DICTIONARY
  5
29422
330
29421
100
AcDbDictionary
280
     1
281
     1
  3
ACAD_XREC_ROUNDTRIP
360
297BB
  3
BUMPTILE
360
29424
  3
DIFFUSETILE
360
29423
  3
OPACITYTILE
360
29427
  3
REFLECTIONTILE
360
29426
  3
REFRACTIONTILE
360
29428
  3
SPECULARTILE
360
29425
  0
DICTIONARY
  5
297B2
330
29458
100
AcDbDictionary
280
     1
281
     1
  3
ACAD_XREC_ROUNDTRIP
360
297B3
  0
DICTIONARY
  5
297B0
330
29444
100
AcDbDictionary
280
     1
281
     1
  3
ACAD_ROUNDTRIP_2008_TABLESTYLE_CELLSTYLEMAP
360
297B1
  3
ACAD_XREC_ROUNDTRIP
360
297EC
  0
DICTIONARY
  5
297C6
330
2942F
100
AcDbDictionary
280
     1
281
     1
  3
ACAD_XREC_ROUNDTRIP
360
297C7
  0
DICTIONARY
  5
297C4
330
2942E
100
AcDbDictionary
280
     1
281
     1
  3
ACAD_XREC_ROUNDTRIP
360
297C5
  0
DICTIONARY
  5
297D2
330
29435
100
AcDbDictionary
280
     1
281
     1
  3
ACAD_XREC_ROUNDTRIP
360
297D3
  0
DICTIONARY
  5
297DA
330
29439
100
AcDbDictionary
280
     1
281
     1
  3
ACAD_XREC_ROUNDTRIP
360
297DB
  0
DICTIONARY
  5
297CC
330
29432
100
AcDbDictionary
280
     1
281
     1
  3
ACAD_XREC_ROUNDTRIP
360
297CD
  0
DICTIONARY
  5
297D0
330
29434
100
AcDbDictionary
280
     1
281
     1
  3
ACAD_XREC_ROUNDTRIP
360
297D1
  0
DICTIONARY
  5
297EA
330
29441
100
AcDbDictionary
280
     1
281
     1
  3
ACAD_XREC_ROUNDTRIP
360
297EB
  0
DICTIONARY
  5
297D8
330
29438
100
AcDbDictionary
280
     1
281
     1
  3
ACAD_XREC_ROUNDTRIP
360
297D9
  0
DICTIONARY
  5
297BC
330
2942A
100
AcDbDictionary
280
     1
281
     1
  3
ACAD_XREC_ROUNDTRIP
360
297BD
  0
DICTIONARY
  5
297BE
330
2942B
100
AcDbDictionary
280
     1
281
     1
  3
ACAD_XREC_ROUNDTRIP
360
297BF
  0
DICTIONARY
  5
297C0
330
2942C
100
AcDbDictionary
280
     1
281
     1
  3
ACAD_XREC_ROUNDTRIP
360
297C1
  0
DICTIONARY
  5
297C2
330
2942D
100
AcDbDictionary
280
     1
281
     1
  3
ACAD_XREC_ROUNDTRIP
360
297C3
  0
DICTIONARY
  5
297CA
330
29431
100
AcDbDictionary
280
     1
281
     1
  3
ACAD_XREC_ROUNDTRIP
360
297CB
  0
DICTIONARY
  5
297E6
330
2943F
100
AcDbDictionary
280
     1
281
     1
  3
ACAD_XREC_ROUNDTRIP
360
297E7
  0
DICTIONARY
  5
297D6
330
29437
100
AcDbDictionary
280
     1
281
     1
  3
ACAD_XREC_ROUNDTRIP
360
297D7
  0
DICTIONARY
  5
297E8
330
29440
100
AcDbDictionary
280
     1
281
     1
  3
ACAD_XREC_ROUNDTRIP
360
297E9
  0
DICTIONARY
  5
297CE
330
29433
100
AcDbDictionary
280
     1
281
     1
  3
ACAD_XREC_ROUNDTRIP
360
297CF
  0
DICTIONARY
  5
297E4
330
2943E
100
AcDbDictionary
280
     1
281
     1
  3
ACAD_XREC_ROUNDTRIP
360
297E5
  0
DICTIONARY
  5
297E2
330
2943D
100
AcDbDictionary
280
     1
281
     1
  3
ACAD_XREC_ROUNDTRIP
360
297E3
  0
DICTIONARY
  5
297DC
330
2943A
100
AcDbDictionary
280
     1
281
     1
  3
ACAD_XREC_ROUNDTRIP
360
297DD
  0
DICTIONARY
  5
297DE
330
2943B
100
AcDbDictionary
280
     1
281
     1
  3
ACAD_XREC_ROUNDTRIP
360
297DF
  0
DICTIONARY
  5
297D4
330
29436
100
AcDbDictionary
280
     1
281
     1
  3
ACAD_XREC_ROUNDTRIP
360
297D5
  0
DICTIONARY
  5
297C8
330
29430
100
AcDbDictionary
280
     1
281
     1
  3
ACAD_XREC_ROUNDTRIP
360
297C9
  0
DICTIONARY
  5
297E0
330
2943C
100
AcDbDictionary
280
     1
281
     1
  3
ACAD_XREC_ROUNDTRIP
360
297E1
  0
XRECORD
  5
297B8
102
{ACAD_REACTORS
330
297B7
102
}
330
297B7
100
AcDbXrecord
280
     1
102
SHADEPLOT
 70
     0
102
SHADEPLOTRESLEVEL
 70
     2
102
SHADEPLOTCUSTOMDPI
 70
   300
  0
XRECORD
  5
297B6
102
{ACAD_REACTORS
330
2947A
102
}
330
2947A
100
AcDbXrecord
280
     1
102
SHADEPLOT
 70
     0
102
SHADEPLOTRESLEVEL
 70
     2
102
SHADEPLOTCUSTOMDPI
 70
   300
  0
XRECORD
  5
2947B
102
{ACAD_REACTORS
330
2947A
102
}
330
2947A
100
AcDbXrecord
280
     1
310
28000000000100008600000001000800000000000086000000000000000000000001000000000000FFFFFF0000000000C8C8C8000000000000000000000000000000000000000000000000000000000000000000330000006600000099000000CC000000FF00000000330000333300006633000099330000CC330000FF3300
310
0000660000336600006666000099660000CC660000FF66000000990000339900006699000099990000CC990000FF99000000CC000033CC000066CC000099CC0000CCCC0000FFCC000000FF000033FF000066FF000099FF0000CCFF0000FFFF000000003300330033006600330099003300CC003300FF003300003333003333
310
33006633330099333300CC333300FF33330000663300336633006666330099663300CC663300FF66330000993300339933006699330099993300CC993300FF99330000CC330033CC330066CC330099CC3300CCCC3300FFCC330000FF330033FF330066FF330099FF3300CCFF3300FFFF330000006600330066006600660099
310
006600CC006600FF00660000336600333366006633660099336600CC336600FF33660000666600336666006666660099666600CC666600FF66660000996600339966006699660099996600CC996600FF99660000CC660033CC660066CC660099CC6600CCCC6600FFCC660000FF660033FF660066FF660099FF6600CCFF6600
310
FFFF660000009900330099006600990099009900CC009900FF00990000339900333399006633990099339900CC339900FF33990000669900336699006666990099669900CC669900FF66990000999900339999006699990099999900CC999900FF99990000CC990033CC990066CC990099CC9900CCCC9900FFCC990000FF99
310
0033FF990066FF990099FF9900CCFF9900FFFF99000000CC003300CC006600CC009900CC00CC00CC00FF00CC000033CC003333CC006633CC009933CC00CC33CC00FF33CC000066CC003366CC006666CC009966CC00CC66CC00FF66CC000099CC003399CC006699CC009999CC00CC99CC00FF99CC0000CCCC0033CCCC0066CC
310
CC0099CCCC00CCCCCC00FFCCCC0000FFCC0033FFCC0066FFCC0099FFCC00CCFFCC00FFFFCC000000FF003300FF006600FF009900FF00CC00FF00FF00FF000033FF003333FF006633FF009933FF00CC33FF00FF33FF000066FF003366FF006666FF009966FF00CC66FF00FF66FF000099FF003399FF006699FF009999FF00CC
310
99FF00FF99FF0000CCFF0033CCFF0066CCFF0099CCFF00CCCCFF00FFCCFF0000FFFF0033FFFF0066FFFF0099FFFF00CCFFFF00FFFFFF00000000000D0D0D001A1A1A00282828003535350043434300505050005D5D5D006B6B6B00787878008686860093939300A1A1A100AEAEAE00BBBBBB00C9C9C900D6D6D600E4E4E400
310
F1F1F100FFFFFF000000000000000000000000000000000000000000000000000000000000000000000000000000000000000000000000000000000000000000000000000000000000000000000000000000000000000000000000000000000000000000000000000000000000000000000000000000000000000000000000
310
00000000000000000000000000000000000000000000000000000000000000000000000000000000000000000000000000000000000000000000000000000000000000000000000000000000000000000000000000000000000000000000000000000000000000000000000000000000000000000000000000000000000000
310
00000000000000000000000000000000000000000000000000000000000000000000000000000000000000000000000000000000000000000000000000000000000000000000000000000000000000000000000000000000000000000000000000000000000000000000000000000000000000000000000000000000000000
310
00000000000000000000000000000000000000000000000000000000000000000000000000000000000000000000000000000000000000000000000000000000000000000000000000000000000000000000000000000000000000000000000000000000000000000000000000000000000000000000000000000000000000
310
00000000000000000000000000000000000000000000000000000000000000000000000000000000000000000000000000000000000000000000000000000000000000000000000000000000000000000000000000000000000000000000000000000000000000000000000000000000000000000000000000000000000000
310
00000000000000000000000000000000000000000000000000000000000000000000000000000000000000000000000000000000000000000000000000000000000000000000000000000000000000000000000000000000000000000000000000000000000000000000000000000000000000000000000000000000000000
310
00000000000000000000000000000000000000000000000000000000000000000000000000000000000000000000000000000000000000000000000000000000000000000000000000000000000000000000000000000000000000000000000000000000000000000000000000000000000000000000000000000000000000
310
00000000000000000000000000000000000000000000000000000000000000000000000000000000000000000000000000000000000000000000000000000000000000000000000000000000000000000000000000000000000000000000000000000000000000000000000000000000000000000000000000000000000000
310
00000000000000000000000000000000000000000000000000000000000000000000000000000000000000000000000000000000000000000000000000000000000000000000000000000000000000000000000000000000000000000000000000000000000000000000000000000000000000000000000000000000000000
310
00000000000000000000000000000000000000000000000000000000000000000000000000000000000000000000000000000000000000000000000000000000000000000000000000000000000000000000000000000000000000000000000000000000000000000000000000000000000000000000000000000000000000
310
00000000000000000000000000000000000000000000000000000000000000000000000000000000000000000000000000000000000000000000000000000000000000000000000000000000000000000000000000000000000000000000000000000000000000000000000000000000000000000000000000000000000000
310
00000000000000000000000000000000000000000000000000000000000000000000000000000000000000000000000000000000000000000000000000000000000000000000000000000000000000000000000000000000000000000000000000000000000000000000000000000000000000000000000000000000000000
310
00000000000000000000000000000000000000000000000000000000000000000000000000000000000000000000000000000000000000000000000000000000000000000000000000000000000000000000000000000000000000000000000000000000000000000000000000000000000000000000000000000000000000
310
00000000000000000000000000000000000000000000000000000000000000000000000000000000000000000000000000000000000000000000000000000000000000000000000000000000000000000000000000000000000000000000000000000000000000000000000000000000000000000000000000000000000000
310
00000000000000000000000000000000000000000000000000000000000000000000000000000000000000000000000000000000000000000000000000000000000000000000000000000000000000000000000000000000000000000000000000000000000000000000000000000000000000000000000000000000000000
310
00000000000000000000000000000000000000000000000000000000000000000000000000000000000000000000000000000000000000000000000000000000000000000000000000000000000000000000000000000000000000000000000000000000000000000000000000000000000000000000000000000000000000
310
00000000000000000000000000000000000000000000000000000000000000000000000000000000000000000000000000000000000000000000000000000000000000000000000000000000000000000000000000000000000000000000000000000000000000000000000000000000000000000000000000000000000000
310
00000000000000000000000000000000000000000000000000000000000000000000000000000000000000000000000000000000000000000000000000000000000000000000000000000000000000000000000000000000000000000000000000000000000000000000000000000000000000000000000000000000000000
310
00000000000000000000000000000000000000000000000000000000000000000000000000000000000000000000000000000000000000000000000000000000000000000000000000000000000000000000000000000000000000000000000000000000000000000000000000000000000000000000000000000000000000
310
00000000000000000000000000000000000000000000000000000000000000000000000000000000000000000000000000000000000000000000000000000000000000000000000000000000000000000000000000000000000000000000000000000000000000000000000000000000000000000000000000000000000000
310
00000000000000000000000000000000000000000000000000000000000000000000000000000000000000000000000000000000000000000000000000000000000000000000000000000000000000000000000000000000000000000000000000000000000000000000000000000000000000000000000000000000000000
310
00000000000000000000000000000000000000000000000000000000000000000000000000000000000000000000000000000000000000000000000000000000000000000000000000000000000000000000000000000000000000000000000000000000000000000000000000000000000000000000000000000000000000
310
00000000000000000000000000000000000000000000000000000000000000000000000000000000000000000000000000000000000000000000000000000000000000000000000000000000000000000000000000000000000000000000000000000000000000000000000000000000000000000000000000000000000000
310
00000000000000000000000000000000000000000000000000000000000000000000000000000000000000000000000000000000000000000000000000000000000000000000000000000000000000000000000000000000000000000000000000000000000000000000000000000000000000000000000000000000000000
310
00000000000000000000000000000000000000000000000000000000000000000000000000000000000000000000000000000000000000000000000000000000000000000000000000000000000000000000000000000000000000000000000000000000000000000000000000000000000000000000000000000000000000
310
00000000000000000000000000000000000000000000000000000000000000000000000000000000000000000000000000000000000000000000000000000000000000000000000000000000000000000000000000000000000000000000000000000000000000000000000000000000000000000000000000000000000000
310
00000000000000000000000000000000000000000000000000000000000000000000000000000000000000000000000000000000000000000000000000000000000000000000000000000000000000000000000000000000000000000000000000000000000000000000000000000000000000000000000000000000000000
310
00000000000000000000000000000000000000000000000000000000000000000000000000000000000000000000000000000000000000000000000000000000000000000000000000000000000000000000000000000000000000000000000000000000000000000000000000000000000000000000000000000000000000
310
00000000000000000000000000000000000000000000000000000000000000000000000000000000000000000000000000000000000000000000000000000000000000000000000000000000000000000000000000000000000000000000000000000000000000000000000000000000000000000000000000000000000000
310
00000000000000000000000000000000000000000000000000000000000000000000000000000000000000000000000000000000000000000000000000000000000000000000000000000000000000000000000000000000000000000000000000000000000000000000000000000000000000000000000000000000000000
310
00000000000000000000000000000000000000000000000000000000000000000000000000000000000000000000000000000000000000000000000000000000000000000000000000000000000000000000000000000000000000000000000000000000000000000000000000000000000000000000000000000000000000
310
00000000000000000000000000000000000000000000000000000000000000000000000000000000000000000000000000000000000000000000000000000000000000000000000000000000000000000000000000000000000000000000000000000000000000000000000000000000000000000000000000000000000000
310
00000000000000000000000000000000000000000000000000000000000000000000000000000000000000000000000000000000000000000000000000000000000000000000000000000000000000000000000000000000000000000000000000000000000000000000000000000000000000000000000000000000000000
310
00000000000000000000000000000000000000000000000000000000000000000000000000000000000000000000000000000000000000000000000000000000000000000000000000000000000000000000000000000000000000000000000000000000000000000000000000000000000000000000000000000000000000
310
00000000000000000000000000000000000000000000000000000000000000000000000000000000000000000000000000000000000000000000000000000000000000000000000000000000000000000000000000000000000000000000000000000000000000000000000000000000000000000000000000000000000000
310
00000000000000000000000000000000000000000000000000000000000000000000000000000000000000000000000000000000000000000000000000000000000000000000000000000000000000000000000000000000000000000000000000000000000000000000000000000000000000000000000000000000000000
310
00000000000000000000000000000000000000000000000000000000000000000000000000000000000000000000000000000000000000000000000000000000000000000000000000000000000000000000000000000000000000000000000000000000000000000000000000000000000000000000000000000000000000
310
00000000000000000000000000000000000000000000000000000000000000000000000000000000000000000000000000000000000000000000000000000000000000000000000000000000000000000000000000000000000000000000000000000000000000000000000000000000000000000000000000000000000000
310
00000000000000000000000000000000000000000000000000000000000000000000000000000000000000000000000000000000000000000000000000000000000000000000000000000000000000000000000000000000000000000000000000000000000000000000000000000000000000000000000000000000000000
310
00000000000000000000000000000000000000000000000000000000000000000000000000000000000000000000000000000000000000000000000000000000000000000000000000000000000000000000000000000000000000000000000000000000000000000000000000000000000000000000000000000000000000
310
00000000000000000000000000000000000000000000000000000000000000000000000000000000000000000000000000000000000000000000000000000000000000000000000000000000000000000000000000000000000000000000000000000000000000000000000000000000000000000000000000000000000000
310
00000000000000000000000000000000000000000000000000000000000000000000000000000000000000000000000000000000000000000000000000000000000000000000000000000000000000000000000000000000000000000000000000000000000000000000000000000000000000000000000000000000000000
310
00000000000000000000000000000000000000000000000000000000000000000000000000000000000000000000000000000000000000000000000000000000000000000000000000000000000000000000000000000000000000000000000000000000000000000000000000000000000000000000000000000000000000
310
00000000000000000000000000000000000000000000000000000000000000000000000000000000000000000000000000000000000000000000000000000000000000000000000000000000000000000000000000000000000000000000000000000000000000000000000000000000000000000000000000000000000000
310
00000000000000000000000000000000000000000000000000000000000000000000000000000000000000000000000000000000000000000000000000000000000000000000000000000000000000000000000000000000000000000000000000000000000000000000000000000000000000000000000000000000000000
310
00000000000000000000000000000000000000000000000000000000000000000000000000000000000000000000000000000000000000000000000000000000000000000000000000000000000000000000000000000000000000000000000000000000000000000000000000000000000000000000000000000000000000
310
00000000000000000000000000000000000000000000000000000000000000000000000000000000000000000000000000000000000000000000000000000000000000000000000000000000000000000000000000000000000000000000000000000000000000000000000000000000000000000000000000000000000000
310
00000000000000000000000000000000000000000000000000000000000000000000000000000000000000000000000000000000000000000000000000000000000000000000000000000000000000000000000000000000000000000000000000000000000000000000000000000000000000000000000000000000000000
310
00000000000000000000000000000000000000000000000000000000000000000000000000000000000000000000000000000000000000000000000000000000000000000000000000000000000000000000000000000000000000000000000000000000000000000000000000000000000000000000000000000000000000
310
00000000000000000000000000000000000000000000000000000000000000000000000000000000000000000000000000000000000000000000000000000000000000000000000000000000000000000000000000000000000000000000000000000000000000000000000000000000000000000000000000000000000000
310
00000000000000000000000000000000000000000000000000000000000000000000000000000000000000000000000000000000000000000000000000000000000000000000000000000000000000000000000000000000000000000000000000000000000000000000000000000000000000000000000000000000000000
310
00000000000000000000000000000000000000000000000000000000000000000000000000000000000000000000000000000000000000000000000000000000000000000000000000000000000000000000000000000000000000000000000000000000000000000000000000000000000000000000000000000000000000
310
00000000000000000000000000000000000000000000000000000000000000000000000000000000000000000000000000000000000000000000000000000000000000000000000000000000000000000000000000000000000000000000000000000000000000000000000000000000000000000000000000000000000000
310
00000000000000000000000000000000000000000000000000000000000000000000000000000000000000000000000000000000000000000000000000000000000000000000000000000000000000000000000000000000000000000000000000000000000000000000000000000000000000000000000000000000000000
310
00000000000000000000000000000000000000000000000000000000000000000000000000000000000000000000000000000000000000000000000000000000000000000000000000000000000000000000000000000000000000000000000000000000000000000000000000000000000000000000000000000000000000
310
00000000000000000000000000000000000000000000000000000000000000000000000000000000000000000000000000000000000000000000000000000000000000000000000000000000000000000000000000000000000000000000000000000000000000000000000000000000000000000000000000000000000000
310
00000000000000000000000000000000000000000000000000000000000000000000000000000000000000000000000000000000000000000000000000000000000000000000000000000000000000000000000000000000000000000000000000000000000000000000000000000000000000000000000000000000000000
310
00000000000000000000000000000000000000000000000000000000000000000000000000000000000000000000000000000000000000000000000000000000000000000000000000000000000000000000000000000000000000000000000000000000000000000000000000000000000000000000000000000000000000
310
00000000000000000000000000000000000000000000000000000000000000000000000000000000000000000000000000000000000000000000000000000000000000000000000000000000000000000000000000000000000000000000000000000000000000000000000000000000000000000000000000000000000000
310
00000000000000000000000000000000000000000000000000000000000000000000000000000000000000000000000000000000000000000000000000000000000000000000000000000000000000000000000000000000000000000000000000000000000000000000000000000000000000000000000000000000000000
310
00000000000000000000000000000000000000000000000000000000000000000000000000000000000000000000000000000000000000000000000000000000000000000000000000000000000000000000000000000000000000000000000000000000000000000000000000000000000000000000000000000000000000
310
00000000000000000000000000000000000000000000000000000000000000000000000000000000000000000000000000000000000000000000000000000000000000000000000000000000000000000000000000000000000000000000000000000000000000000000000000000000000000000000000000000000000000
310
00000000000000000000000000000000000000000000000000000000000000000000000000000000000000000000000000000000000000000000000000000000000000000000000000000000000000000000000000000000000000000000000000000000000000000000000000000000000000000000000000000000000000
310
00000000000000000000000000000000000000000000000000000000000000000000000000000000000000000000000000000000000000000000000000000000000000000000000000000000000000000000000000000000000000000000000000000000000000000000000000000000000000000000000000000000000000
310
00000000000000000000000000000000000000000000000000000000000000000000000000000000000000000000000000000000000000000000000000000000000000000000000000000000000000000000000000000000000000000000000000000000000000000000000000000000000000000000000000000000000000
310
00000000000000000000000000000000000000000000000000000000000000000000000000000000000000000000000000000000000000000000000000000000000000000000000000000000000000000000000000000000000000000000000000000000000000000000000000000000000000000000000000000000000000
310
00000000000000000000000000000000000000000000000000000000000000000000000000000000000000000000000000000000000000000000000000000000000000000000000000000000000000000000000000000000000000000000000000000000000000000000000000000000000000000000000000000000000000
310
00000000000000000000000000000000000000000000000000000000000000000000000000000000000000000000000000000000000000000000000000000000000000000000000000000000000000000000000000000000000000000000000000E2E2E2E2E2E2E2E2E2E2E2E2E2E2E2E2E2E2E2E2E2E2E2E2E2E2E2E2E2E2
310
E2E2E2E2E2E2E2E2E2E2E2E2E2E2E2E2E2E2E2E2E2E2E2E2E2E2E2E2E2E2E2E2E2E2E2E2E2E20000000000000000000000000000000000000000000000000000000000000000000000000000000000000000000000000000000000000000000000000000000000000000000000000000000000000000000000000000000000
310
000000000000000000000000000000000000000000000000000000000000000000000000000000000000000000000000000000000000000000000000000000000000000000000000000000000000000000000000000000000000000000000000000000E2000000E20000000000000000000000000000000000000000000000
310
0000000000E20000000000000000000000000000000000000000000000000000000000E2000000E2000000000000000000000000000000000000000000000000000000000000000000000000000000000000000000000000000000000000000000000000000000000000000000000000000000000000000000000000000000
310
0000000000000000000000000000000000000000000000000000000000000000000000000000000000000000000000000000000000000000000000000000000000000000000000000000000000000000000000000000000000000000000000000000000000E2000000E2000000000000000000000000000000000000000000
310
00000000000000E20000000000000000000000000000000000000000000000000000000000E2000000E200000000000000000000000000000000000000000000000000000000000000000000000000000000000000000000000000000000000000000000000000000000000000000000000000000000000000000000000000
310
00000000000000000000000000000000000000000000000000000000000000000000000000000000000000000000000000000000000000000000000000000000000000000000000000000000000000000000000000000000000000000000000000000000000000E2000000E200000000000000000000000000000000000000
310
000000000000000000E20000000000000000000000000000000000000000000000000000000000E2000000E20000000000000000000000000000000000000000000000000000000000000000000000000000000000000000000000000000000000000000000000000000000000000000000000000000000000000000000000
310
000000000000000000000000000000000000000000000000000000000000000000000000000000000000000000000000000000000000000000000000000000000000000000000000000000000000000000000000000000000000000000000000000000000000000000E2000000E20000000000000000000000000000000000
310
0000000000000000000000E20000000000000000000000000000000000000000000000000000000000E2000000E2000000000000000000000000000000000000000000000000000000000000000000000000000000000000000000000000000000000000000000000000000000000000000000000000000000000000000000
310
0000000000000000000000000000000000000000000000000000000000000000000000000000000000000000000000000000000000000000000000000000000000000000000000000000000000000000000000000000000000000000000000000000000000000000000000E2000000E2000000000000000000000000000000
310
00000000000000000000000000E20000000000000000000000000000000000000000000000000000000000E2000000E200000000000000000000000000000000000000000000000000000000000000000000000000000000000000000000000000000000000000000000000000000000000000000000000000000000000000
310
00000000000000000000000000000000000000000000000000000000000000000000000000000000000000000000000000000000000000000000000000000000000000000000000000000000000000000000000000000000000000000000000000000000000000000000000000E2000063E26363636363E26363636363E263
310
6363636363E26363636363E2636363636363E26363636363E2636363636363E26363636363E26363636363E26363000000E20000000000000000000000000000000000000000000000000000000000000000000000000000000000000000000000000000000000000000000000000000000000000000000000000000000000
310
000000000000000000000000000000000000000000000000000000000000000000000000000000000000000000000000000000000000000000000000000000000000000000000000000000000000000000000000000000000000000000000000000000000000000000000000000000E2000063E2E2E2E2E2E2E2E2E2E2E2E2
310
E2E2E2E2E2E2E2E2E2E2E2E2E2E2E2E2E2E2E2E2E2E2E2E2E2E2E2E2E2E2E2E2E2E2E2E2E2E2E2E2E2E2E2E2E2E20063000000E2000000000000000000000000000000000000000000000000000000000000000000000000000000000000000000000000000000000000000000000000000000000000000000000000000000
310
0000000000000000000000000000000000000000000000000000000000000000000000000000000000000000000000000000000000000000000000000000000000000000000000000000000000000000000000000000000000000000000000000000000000000000000000000000000000E2000063E2E2E2E2E2E2E2E2E2E2
310
E2E2E2E2E2E2E2E2E2E2E2E2E2E2E2E2E2E2E2E2E2E2E2E2E2E2E2E2E2E2E2E2E2E2E2E2E2E2E2E2E2E2E2E2E2E2E2E20063000000E200000000000000000000000000000000000000000000000000000000000000000000000000000000000000000000000000000000000000000000000000000000000000000000000000
310
00000000000000000000000000000000000000000000000000000000000000000000000000000000000000000000000000000000000000000000000000000000000000000000000000000000000000000000000000000000000000000000000000000000000000000000000000000000000000E2000063E2E2E2E2E2E2E2E2
310
E2E2E2E2E2E2E2E2E2E2E2E2E2E2E2E2E2E2E2E2E2E2E2E2E2E2E2E2E2E2E2E2E2E2E2E2E2E2E2E2E2E2E2E2E2E2E2E2E2E20063000000E20000000000000000000000000000000000000000000000000000000000000000000000000000000000000000000000000000000000000000000000000000000000000000000000
310
000000000000000000000000000000000000000000000000000000000000000000000000000000000000000000000000000000000000000000000000000000000000000000000000000000000000000000000000000000000000000000000000000000000000000000000000000000000000000000E2000000E20000000000
310
0000000000000000000000000000000000000000000000E20000000000000000000000000000000000000000000000000000000000E2000000E2000000000000000000000000000000000000000000000000000000000000000000000000000000000000000000000000000000000000000000000000000000000000000000
310
0000000000000000000000000000000000000000000000000000000000000000000000000000000000000000000000000000000000000000000000000000000000000000000000000000000000000000000000000000000000000000000000000000000000000000000000000000000000000000000000E2000063E2000000
310
00000000000000000000000000000000000000000000000000E2000000000000000000000000000000000000000000000000000000000063000000E200000000000000000000000000000000000000000000000000000000000000000000000000000000000000000000000000000000000000000000000000000000000000
310
00000000000000000000000000000000000000000000000000000000000000000000000000000000000000000000000000000000000000000000000000000000000000000000000000000000000000000000000000000000000000000000000000000000000000000000000000000000000000000000000000E2000063E200
310
6363636363636363636363E2636363000000000000000000000000E2000000000000000000000000000000000000000000000000000000000063000000E20000000000000000000000000000000000000000000000000000000000000000000000000000000000000000000000000000000000000000000000000000000000
310
000000000000000000000000000000000000000000000000000000000000000000000000000000000000000000000000000000000000000000000000000000000000000000000000000000000000000000000000000000000000000000000000000000000000000000000000000000000000000000000000000000E2000063
310
E200636363636363636363636363636363E20000000000000000000000E2000000000000000000000000000000000000000000000000000000000063000000E2000000000000000000000000000000000000000000000000000000000000000000000000000000000000000000000000000000000000000000000000000000
310
0000000000000000000000000000000000000000000000000000000000000000000000000000000000000000000000000000000000000000000000000000000000000000000000000000000000000000000000000000000000000000000000000000000000000000000000000000000000000000000000000000000000E200
310
0063E200006363636363636363636363636363E2E200000000000000000000E2E2E2E2E2E2E2E2E200000000000000000000000000000000000000000063000000E200000000000000000000000000000000000000000000000000000000000000000000000000000000000000000000000000000000000000000000000000
310
00000000000000000000000000000000000000000000000000000000000000000000000000000000000000000000000000000000000000000000000000000000000000000000000000000000000000000000000000000000000000000000000000000000000000000000000000000000000000000000000000000000000000
310
E2000063E200E2E2E2E20000000000000000000000E2E200000000000000000000E2E2E2E2E2E2E2E2E200000000000000000000000000000000000000000063000000E20000000000000000000000000000000000000000000000000000000000000000000000000000000000000000000000000000000000000000000000
310
00000000000000000000000000000000000000000000000000000000000000000000000000000000000000000000000000000000000000000000000000000000000000000000000000000000000000000000000000000000000000000000000000000000000000000000000000000000000000000000000000000000000000
310
0000E2000063E200E2E2E2E20000000000000000000000000000000000000000000000E2E2E2E2E2E2E2E2E2E2E2E2E2E2E200000000000000000000000000000063000000E2000000000000000000000000000000000000000000000000000000000000000000000000000000000000000000000000000000000000000000
310
00000000000000000000000000000000000000000000000000000000000000000000000000000000000000000000000000000000000000000000000000000000000000000000000000000000000000000000000000000000000000000000000000000000000000000000000000000000000000000000000000000000000000
310
00000000E2000000E200E2E2E2E2E2E2E2E2E2E2E2E2E2E2000000E2E2E2E2E2E200000000E2000000E2E2E2E2E2E20000000000000000000000000000000000000000E2000000E200000000000000000000000000000000000000000000000000000000000000000000000000000000000000000000000000000000000000
310
00000000000000000000000000000000000000000000000000000000000000000000000000000000000000000000000000000000000000000000000000000000000000000000000000000000000000000000000000000000000000000000000000000000000000000000000000000000000000000000000000000000000000
310
000000000000E2000063E200E2E2E2E2E2E2E2E2E2E2E2E2E2E2E2E200E2E2E2E2E2E200000000E2000000E2E2E2E2E2E2000000000000000000000000000000000000000063000000E20000000000000000000000000000000000000000000000000000000000000000000000000000000000000000000000000000000000
310
00000000000000000000000000000000000000000000000000000000000000000000000000000000000000000000000000000000000000000000000000000000000000000000000000000000000000000000000000000000000000000000000000000000000000000000000000000000000000000000000000000000000000
310
0000000000000000E2E2E263E2000000E2E2E2E2E2E2E2E2E2E2E2E2E2E2E2E2E2E2E2E2E2E2E2E2E2E2E2E2E2E2E2E2E2E2E2E2E2E2E2E2E2E2E2E2E2E2E2E2E2E2E2E200000063E2E2E2E2000000000000000000000000000000000000000000000000000000000000000000000000000000000000000000000000000000
310
00000000000000000000000000000000000000000000000000000000000000000000000000000000000000000000000000000000000000000000000000000000000000000000000000000000000000000000000000000000000000000000000000000000000000000000000000000000000000000000000000000000000000
310
00000000000000000000E20000630000E2E200E2E2000000000000000000000000E2E2E2E2E2E200000000E2000000E2E2E2E2E2E200000000000000000000000000E2E2E200E2000063000000E200000000000000000000000000000000000000000000000000000000000000000000000000000000000000000000000000
310
00000000000000000000000000000000000000000000000000000000000000000000000000000000000000000000000000000000000000000000000000000000000000000000000000000000000000000000000000000000000000000000000000000000000000000000000000000000000000000000000000000000000000
310
000000000000000000000000E200006300E200000000E2000000000000000000000000E2E2E2E2E2E200000000E2000000E2E2E2E2E2E200000000000000000000000000E200000000E20063000000E20000000000000000000000000000000000000000000000000000000000000000000000000000000000000000000000
310
00000000000000000000000000000000000000000000000000000000000000000000000000000000000000000000000000000000000000000000000000000000000000000000000000000000000000000000000000000000000000000000000000000000000000000000000000000000000000000000000000000000000000
310
0000000000000000000000000000E2000063E2000000000000E2000000000000000000000000000000000000000000E2000000000000000000000000000000000000000000E2000000000000E263000000E2000000000000000000000000000000000000000000000000000000000000000000000000000000000000000000
310
00000000000000000000000000000000000000000000000000000000000000000000000000000000000000000000000000000000000000000000000000000000000000000000000000000000000000000000000000000000000000000000000000000000000000000000000000000000000000000000000000000000000000
310
00000000000000000000000000000000E2000063E20000E2E20000E2E20000000000000000000000000000000000000000E2000000000000000000000000000000000000000000E20000E2E2000000E2000000E200000000000000000000000000000000000000000000000000000000000000000000000000000000000000
310
00000000000000000000000000000000000000000000000000000000000000000000000000000000000000000000000000000000000000000000000000000000000000000000000000000000000000000000000000000000000000000000000000000000000000000000000000000000000000000000000000000000000000
310
000000000000000000000000000000000000E2000000E2000000E20000E2000000000000000000000000000000000000000000E2000000000000000000000000000000000000000000E2000000E2000000E2000000E20000000000000000000000000000000000000000000000000000000000000000000000000000000000
310
00000000000000000000000000000000000000000000000000000000000000000000000000000000000000000000000000000000000000000000000000000000000000000000000000000000000000000000000000000000000000000000000000000000000000000000000000000000000000000000000000000000000000
310
0000000000000000000000000000000000000000E2000063E2000000000000E2000000000000000000000000000000000000000000E2000000000000000000000000000000000000000000E2000000000000E2E2000000E2000000000000000000000000000000000000000000000000000000000000000000000000000000
310
00000000000000000000000000000000000000000000000000000000000000000000000000000000000000000000000000000000000000000000000000000000000000000000000000000000000000000000000000000000000000000000000000000000000000000000000000000000000000000000000000000000000000
310
00000000000000000000000000000000000000000000E2000063E2E200000000E200000000000000000000000000000000000000000000E200000000000000000000000000000000000000000000E200000000E2E2E2000000E200000000000000000000000000000000000000000000000000000000000000000000000000
310
00000000000000000000000000000000000000000000000000000000000000000000000000000000000000000000000000000000000000000000000000000000000000000000000000000000000000000000000000000000000000000000000000000000000000000000000000000000000000000000000000000000000000
310
000000000000000000000000000000000000000000000000E2000063E200E2E2E2E2E20000000000E2E2000000000000000000000000000000E20000000000000000000000000000000000000000000000E2E2E2E20000E2000000E20000000000000000000000000000000000000000000000000000000000000000000000
310
00000000000000000000000000000000000000000000000000000000000000000000000000000000000000000000000000000000000000000000000000000000000000000000000000000000000000000000000000000000000000000000000000000000000000000000000000000000000000000000000000000000000000
310
0000000000000000000000000000000000000000000000000000E2000063E2000000000000E2E200E2E2E200000000000000000000000000000000E20000000000000000000000000000000000000000000000000000000000E2000000E2000000000000000000000000000000000000000000000000000000000000000000
310
00000000000000000000000000000000000000000000000000000000000000000000000000000000000000000000000000000000000000000000000000000000000000000000000000000000000000000000000000000000000000000000000000000000000000000000000000000000000000000000000000000000000000
310
00000000000000000000000000000000000000000000000000000000E2000063E2000000000000E2E200E2E2E200000000000000000000000000000000E20000000000000000000000000000000000000000000000000000000000E2000000E200000000000000000000000000000000000000000000000000000000000000
310
00000000000000000000000000000000000000000000000000000000000000000000000000000000000000000000000000000000000000000000000000000000000000000000000000000000000000000000000000000000000000000000000000000000000000000000000000000000000000000000000000000000000000
310
000000000000000000000000000000000000000000000000000000000000E2000000E200000000000000E2000000E2E2000000000000000000000000000000E20000000000000000000000000000000000000000000000000000000000E2000000E20000000000000000000000000000000000000000000000000000000000
310
00000000000000000000000000000000000000000000000000000000000000000000000000000000000000000000000000000000000000000000000000000000000000000000000000000000000000000000000000000000000000000000000000000000000000000000000000000000000000000000000000000000000000
310
0000000000000000000000000000000000000000000000000000000000000000E2000063E200000000000000E20000E2E2E20000000000000000000000E2E2E2E2E2E2E2E20000000000000000000000000000000000000000000000000000E2000000E2000000000000000000000000000000000000000000000000000000
310
00000000000000000000000000000000000000000000000000000000000000000000000000000000000000000000000000000000000000000000000000000000000000000000000000000000000000000000000000000000000000000000000000000000000000000000000000000000000000000000000000000000000000
310
00000000000000000000000000000000000000000000000000000000000000000000E2000063E200000000000000E2000000E2000000000000000000000000E2E2E2E2E2E2E2E20000000000000000000000000000000000000000000000000000E2000000E200000000000000000000000000000000000000000000000000
310
00000000000000000000000000000000000000000000000000000000000000000000000000000000000000000000000000000000000000000000000000000000000000000000000000000000000000000000000000000000000000000000000000000000000000000000000000000000000000000000000000000000000000
310
000000000000000000000000000000000000000000000000000000000000000000000000E2000063E200000000000000E2000000E2E200000000000000000000000000E2E2E2E200000000000000000000000000000000000000000000000000000000E2000000E20000000000000000000000000000000000000000000000
310
00000000000000000000000000000000000000000000000000000000000000000000000000000000000000000000000000000000000000000000000000000000000000000000000000000000000000000000000000000000000000000000000000000000000000000000000000000000000000000000000000000000000000
310
0000000000000000000000000000000000000000000000000000000000000000000000000000E2000063E200000000000000E20000E2E2E200000000000000000000000000E2E2E2E200000000000000000000000000000000000000000000000000000000E2000000E2000000000000000000000000000000000000000000
310
00000000000000000000000000000000000000000000000000000000000000000000000000000000000000000000000000000000000000000000000000000000000000000000000000000000000000000000000000000000000000000000000000000000000000000000000000000000000000000000000000000000000000
310
00000000000000000000000000000000000000000000000000000000000000000000000000000000E2000063E200000000000000E2E20000E200000000000000000000000000000000000000000000000000000000000000000000000000000000000000000000E2000000E200000000000000000000000000000000000000
310
00000000000000000000000000000000000000000000000000000000000000000000000000000000000000000000000000000000000000000000000000000000000000000000000000000000000000000000000000000000000000000000000000000000000000000000000000000000000000000000000000000000000000
310
000000000000000000000000000000000000000000000000000000000000000000000000000000000000E2000063E2000000000000E2E2000000E2E2000000000000000000000000000000000000000000000000000000000000000000000000000000000000000000E2000000E20000000000000000000000000000000000
310
00000000000000000000000000000000000000000000000000000000000000000000000000000000000000000000000000000000000000000000000000000000000000000000000000000000000000000000000000000000000000000000000000000000000000000000000000000000000000000000000000000000000000
310
0000000000000000000000000000000000000000000000000000000000000000000000000000000000000000E2000000E20000000000E200E20000E2E2E2000000000000000000000000000000000000000000000000000000000000000000000000000000000000000000E2000000E2000000000000000000000000000000
310
00000000000000000000000000000000000000000000000000000000000000000000000000000000000000000000000000000000000000000000000000000000000000000000000000000000000000000000000000000000000000000000000000000000000000000000000000000000000000000000000000000000000000
310
00000000000000000000000000000000000000000000000000000000000000000000000000000000000000000000E2000063E20000000000E200E2000000E200000000000000000000000000000000000000000000000000000000000000000000000000000000000000000000E2000000E200000000000000000000000000
310
00000000000000000000000000000000000000000000000000000000000000000000000000000000000000000000000000000000000000000000000000000000000000000000000000000000000000000000000000000000000000000000000000000000000000000000000000000000000000000000000000000000000000
310
000000000000000000000000000000000000000000000000000000000000000000000000000000000000000000000000E2000063E20000000000E200E2000000E2E2000000000000000000000000000000E20000000000000000000000000000000000000000000000000000000000E2000000E20000000000000000000000
310
00000000000000000000000000000000000000000000000000000000000000000000000000000000000000000000000000000000000000000000000000000000000000000000000000000000000000000000000000000000000000000000000000000000000000000000000000000000000000000000000000000000000000
310
0000000000000000000000000000000000000000000000000000000000000000000000000000000000000000000000000000E2000063E20000000000E200E20000E2E2E2000000000000000000000000000000E20000000000000000000000000000000000000000000000000000000000E2000000E2000000000000000000
310
00000000000000000000000000000000000000000000000000000000000000000000000000000000000000000000000000000000000000000000000000000000000000000000000000000000000000000000000000000000000000000000000000000000000000000000000000000000000000000000000000000000000000
310
00000000000000000000000000000000000000000000000000000000000000000000000000000000000000000000000000000000E2000063E20000000000E200E2000000E200000000000000000000000000000000E20000000000000000000000000000000000000000000000000000000000E2000000E200000000000000
310
00000000000000000000000000000000000000000000000000000000000000000000000000000000000000000000000000000000000000000000000000000000000000000000000000000000000000000000000000000000000000000000000000000000000000000000000000000000000000000000000000000000000000
310
000000000000000000000000000000000000000000000000000000000000000000000000000000000000000000000000000000000000E2000063E20000000000E200E2000000E2E2000000000000000000000000000000E20000000000000000E2E2E2E2E2E2E2E200000000000000000000000000E2000000E20000000000
310
00000000000000000000000000000000000000000000000000000000000000000000000000000000000000000000000000000000000000000000000000000000000000000000000000000000000000000000000000000000000000000000000000000000000000000000000000000000000000000000000000000000000000
310
0000000000000000000000000000000000000000000000000000000000000000000000000000000000000000000000000000000000000000E2000000E2E200000000E200E2E20000E2E2000000000000000000000000000000E20000000000000000E2E2E2E2E2E2E2E20000000000000000000000E200E2000000E2000000
310
00000000000000000000000000000000000000000000000000000000000000000000000000000000000000000000000000000000000000000000000000000000000000000000000000000000000000000000000000000000000000000000000000000000000000000000000000000000000000000000000000000000000000
310
00000000000000000000000000000000000000000000000000000000000000000000000000000000000000000000000000000000000000000000E2E2E263E2E2E2E2E2E2E200E200E2E2E2E2E2E2E2E2E2E2E2E2E2E2E2E2E2E2E2E2E2E2E2E2E2E2E2000000E2E2E2E200000000E2E2E2E2E2E2E2E2E2E2E2E2E2E2E2E200
310
00000000000000000000000000000000000000000000000000000000000000000000000000000000000000000000000000000000000000000000000000000000000000000000000000000000000000000000000000000000000000000000000000000000000000000000000000000000000000000000000000000000000000
310
000000000000000000000000000000000000000000000000000000000000000000000000000000000000000000000000000000000000000000000000E2000063E20000000000E200E2000000E200000000000000000000000000000000E20000000000000000000000000000000000000000000000000000000000E2000000
310
E2000000000000000000000000000000000000000000000000000000000000000000000000000000000000000000000000000000000000000000000000000000000000000000000000000000000000000000000000000000000000000000000000000000000000000000000000000000000000000000000000000000000000
310
0000000000000000000000000000000000000000000000000000000000000000000000000000000000000000000000000000000000000000000000000000E2000063E20000000000E200E2000000E2E2000000000000000000000000000000E20000000000000000000000000000000000000000000000000000000000E200
310
0000E200000000000000000000000000000000000000000000000000000000000000000000000000000000000000000000000000000000000000000000000000000000000000000000000000000000000000000000000000000000000000000000000000000000000000000000000000000000000000000000000000000000
310
00000000000000000000000000000000000000000000000000000000000000000000000000000000000000000000000000000000000000000000000000000000E2000063E20000000000E200E20000E2E200000000000000000000000000000000E20000000000000000000000000000000000000000000000000000000000
310
E2000000E20000000000000000000000000000000000000000000000000000000000000000000000000000000000000000000000000000000000000000000000000000000000000000000000000000000000000000000000000000000000000000000000000000000000000000000000000000000000000000000000000000
310
000000000000000000000000000000000000000000000000000000000000000000000000000000000000000000000000000000000000000000000000000000000000E2000063E20000000000E200E2000000E200000000000000000000000000000000E2000000000000000000000000000000000000000000000000000000
310
0000E2000000E2000000000000000000000000000000000000000000000000000000000000000000000000000000000000000000000000000000000000000000000000000000000000000000000000000000000000000000000000000000000000000000000000000000000000000000000000000000000000000000000000
310
0000000000000000000000000000000000000000000000000000000000000000000000000000000000000000000000000000000000000000000000000000000000000000E2000063E20000000000E200E2000000E2E2000000000000000000000000000000E200000000000000000000000000000000000000000000000000
310
00000000E2000000E200000000000000000000000000000000000000000000000000000000000000000000000000000000000000000000000000000000000000000000000000000000000000000000000000000000000000000000000000000000000000000000000000000000000000000000000000000000000000000000
310
00000000000000000000000000000000000000000000000000000000000000000000000000000000000000000000000000000000000000000000000000000000000000000000E2000000E20000000000E200E20000E2E200000000000000000000000000000000E20000000000000000000000000000000000000000000000
310
000000000000E2000000E20000000000000000000000000000000000000000000000000000000000000000000000000000000000000000000000000000000000000000000000000000000000000000000000000000000000000000000000000000000000000000000000000000000000000000000000000000000000000000
310
000000000000000000000000000000000000000000000000000000000000000000000000000000000000000000000000000000000000000000000000000000000000000000000000E2000063E20000000000E2E2E2E20000E200000000000000000000000000000000E2000000000000000000000000000000000000000000
310
0000000000000000E2000000E2000000000000000000000000000000000000000000000000000000000000000000000000000000000000000000000000000000000000000000000000000000000000000000000000000000000000000000000000000000000000000000000000000000000000000000000000000000000000
310
0000000000000000000000000000000000000000000000000000000000000000000000000000000000000000000000000000000000000000000000000000000000000000000000000000E2000063E20000000000E200E2000000E2E2000000000000000000000000000000E200000000000000000000000000000000000000
310
00000000000000000000E2000000E200000000000000000000000000000000000000000000000000000000000000000000000000000000000000000000000000000000000000000000000000000000000000000000000000000000000000000000000000000000000000000000000000000000000000000000000000000000
310
00000000000000000000000000000000000000000000000000000000000000000000000000000000000000000000000000000000000000000000000000000000000000000000000000000000E2000063E200000000000000E20000E2E200000000000000000000000000000000E20000000000000000000000000000000000
310
000000000000000000000000E2000000E20000000000000000000000000000000000000000000000000000000000000000000000000000000000000000000000000000000000000000000000000000000000000000000000000000000000000000000000000000000000000000000000000000000000000000000000000000
310
000000000000000000000000000000000000000000000000000000000000000000000000000000000000000000000000000000000000000000000000000000000000000000000000000000000000E2000063E200000000000000E2000000E200000000000000000000000000000000E2000000000000000000000000000000
310
0000000000000000000000000000E2000000E2000000000000000000000000000000000000000000000000000000000000000000000000000000000000000000000000000000000000000000000000000000000000000000000000000000000000000000000000000000000000000000000000000000000000000000000000
310
0000000000000000000000000000000000000000000000000000000000000000000000000000000000000000000000000000000000000000000000000000000000000000000000000000000000000000E2000063E200000000000000E2000000E2E2000000000000000000000000000000E200000000000000000000000000
310
00000000000000000000000000000000E2000000E200000000000000000000000000000000000000000000000000000000000000000000000000000000000000000000000000000000000000000000000000000000000000000000000000000000000000000000000000000000000000000000000000000000000000000000
310
00000000000000000000000000000000000000000000000000000000000000000000000000000000000000000000000000000000000000000000000000000000000000000000000000000000000000000000E2000063E200000000000000E20000E2E200000000000000000000000000000000E20000000000000000000000
310
000000000000000000000000000000000000E2000000E20000000000000000000000000000000000000000000000000000000000000000000000000000000000000000000000000000000000000000000000000000000000000000000000000000000000000000000000000000000000000000000000000000000000000000
310
000000000000000000000000000000000000000000000000000000000000000000000000000000000000000000000000000000000000000000000000000000000000000000000000000000000000000000000000E2000000E200000000000000E2000000E200000000000000000000000000000000E2000000000000000000
310
0000E2E2E2E2E2E2E2E2E2000000000000000000E2000000E2000000000000000000000000000000000000000000000000000000000000000000000000000000000000000000000000000000000000000000000000000000000000000000000000000000000000000000000000000000000000000000000000000000000000
310
0000000000000000000000000000000000000000000000000000000000000000000000000000000000000000000000000000000000000000000000000000000000000000000000000000000000000000000000000000E2000063E200000000000000E2000000E200000000000000000000000000000000E200000000000000
310
00000000E2E2E2E2E2E2E2E2E2000000000000000000E2000000E200000000000000000000000000000000000000000000000000000000000000000000000000000000000000000000000000000000000000000000000000000000000000000000000000000000000000000000000000000000000000000000000000000000
310
00000000000000000000000000000000000000000000000000000000000000000000000000000000000000000000000000000000000000000000000000000000000000000000000000000000000000000000000000000000E2000063E200000000000000E2E200E2E200000000000000000000000000000000E20000000000
310
000000000000E2E2E2E2E2E2E2E2E2000000000000000000E2000000E20000000000000000000000000000000000000000000000000000000000000000000000000000000000000000000000000000000000000000000000000000000000000000000000000000000000000000000000000000000000000000000000000000
310
000000000000000000000000000000000000000000000000000000000000000000000000000000000000000000000000000000000000000000000000000000000000000000000000000000000000000000000000000000000000E2000063E2000000000000E2E20000000000000000000000000000000000000000E2000000
310
0000000000000000E2E2E2E2E2E2E2E2E2000000000000000000E2000000E2000000000000000000000000000000000000000000000000000000000000000000000000000000000000000000000000000000000000000000000000000000000000000000000000000000000000000000000000000000000000000000000000
310
0000000000000000000000000000000000000000000000000000000000000000000000000000000000000000000000000000000000000000000000000000000000000000000000000000000000000000000000000000000000000000E2000063E200000000000000000000000000000000000000000000E2E2E2E2E2E2E2E2
310
E2E2E2E2E2E2E200000000E2E2E2E2E2E2E200000000000000000000E2000000E200000000000000000000000000000000000000000000000000000000000000000000000000000000000000000000000000000000000000000000000000000000000000000000000000000000000000000000000000000000000000000000
310
00000000000000000000000000000000000000000000000000000000000000000000000000000000000000000000000000000000000000000000000000000000000000000000000000000000000000000000000000000000000000000000E2000063E2000000000000000000000000E2E200E2E200E2E200E2E20000E20000
310
E20000E20000E20000E2E200E2E2E2E2E2E2E2E2E2E20000000000000000E2000000E20000000000000000000000000000000000000000000000000000000000000000000000000000000000000000000000000000000000000000000000000000000000000000000000000000000000000000000000000000000000000000
310
000000000000000000000000000000000000000000000000000000000000000000000000000000000000000000000000000000000000000000000000000000000000000000000000000000000000000000000000000000000000000000000000E2000000E2000000000000000000000000E2E200E2E200E2E200E2E20000E2
310
0000E20000E20000E20000E2E200E2E200E2000000000000E2E2000000000000E2000000E2000000000000000000000000000000000000000000000000000000000000000000000000000000000000000000000000000000000000000000000000000000000000000000000000000000000000000000000000000000000000
310
0000000000000000000000000000000000000000000000000000000000000000000000000000000000000000000000000000000000000000000000000000000000000000000000000000000000000000000000000000000000000000000000000000E2000063E200E2E2E2E2E200000000000000E20000E20000E20000E200
310
00E20000E20000E20000E20000E2000000E20000E20000000000E2E2E2E2E2E20000E2000000E200000000000000000000000000000000000000000000000000000000000000000000000000000000000000000000000000000000000000000000000000000000000000000000000000000000000000000000000000000000
310
00000000000000000000000000000000000000000000000000000000000000000000000000000000000000000000000000000000000000000000000000000000000000000000000000000000000000000000000000000000000000000000000000000000E2000063E2E200000000E2E2000000000000E2E2E2E2E2E2E2E2E2
310
E2E2E2E2E2E2E2E2E2E2E2E2E2E2E2E2E2E2E2E2E2E2E20000000000E2E200000000E2E2E2000000E20000000000000000000000000000000000000000000000000000000000000000000000000000000000000000000000000000000000000000000000000000000000000000000000000000000000000000000000000000
310
000000000000000000000000000000000000000000000000000000000000000000000000000000000000000000000000000000000000000000000000000000000000000000000000000000000000000000000000000000000000000000000000000000000000E2000063E2000000000000E20000000000E200000000000000
310
E200000000000000E200000000000000E200000000000000E20000000000E2000000000000E2E2000000E2000000000000000000000000000000000000000000000000000000000000000000000000000000000000000000000000000000000000000000000000000000000000000000000000000000000000000000000000
310
0000000000000000000000000000000000000000000000000000000000000000000000000000000000000000000000000000000000000000000000000000000000000000000000000000000000000000000000000000000000000000000000000000000000000000E2000063E2000000E20000E20000000000E20000000000
310
0000E200000000000000E200000000000000E200000000000000E20000000000E2000000E20000E2E2000000E200000000000000000000000000000000000000000000000000000000000000000000000000000000000000000000000000000000000000000000000000000000000000000000000000000000000000000000
310
00000000000000000000000000000000000000000000000000000000000000000000000000000000000000000000000000000000000000000000000000000000000000000000000000000000000000000000000000000000000000000000000000000000000000000000E2000063E20000E2E2000000E200000000E2E2E2E2
310
E2E2E2E2E2E2E2E2E2E2E2E2E2E2E2E2E2E2E2E2E2E2E2E2E2E2E2E2E20000000000E20000E2E2000000E2000000E20000000000000000000000000000000000000000000000000000000000000000000000000000000000000000000000000000000000000000000000000000000000000000000000000000000000000000
310
000000000000000000000000000000000000000000000000000000000000000000000000000000000000000000000000000000000000000000000000000000000000000000000000000000000000000000000000000000000000000000000000000000000000000000000000E2000063E2000000E20000E200000000000000
310
0000000000000000000000000000E2000000000000000000000000000000000000000000E2000000E20000E263000000E2000000000000000000000000000000000000000000000000000000000000000000000000000000000000000000000000000000000000000000000000000000000000000000000000000000000000
310
0000000000000000000000000000000000000000000000000000000000000000000000000000000000000000000000000000000000000000000000000000000000000000000000000000000000000000000000000000000000000000000000000000000000000000000000000000E2000000E2000000000000E20000000000
310
00000000000000000000000000000000E2000000000000000000000000000000000000000000E2000000000000E200000000E200000000000000000000000000000000000000000000000000000000000000000000000000000000000000000000000000000000000000000000000000000000000000000000000000000000
310
00000000000000000000000000000000000000000000000000000000000000000000000000000000000000000000000000000000000000000000000000000000000000000000000000000000000000000000000000000000000000000000000000000000000000000000000000000000E200006300E2000000E2E200000000
310
000000000000000000000000000000000000E200000000000000000000000000000000000000000000E2E2000000E20063000000E20000000000000000000000000000000000000000000000000000000000000000000000000000000000000000000000000000000000000000000000000000000000000000000000000000
310
000000000000000000000000000000000000000000000000000000000000000000000000000000000000000000000000000000000000000000000000000000000000000000000000000000000000000000000000000000000000000000000000000000000000000000000000000000000000E2E2E2E20000E2E2E2E2E2E2E2
310
E2E2E2E2E2E2E2E2E2E2E2E2E2E2E2E2E2E2E2E2E2E2E2E2E2E2E2E2E2E2E2E2E2E2E2E2E2E2E2E2E2E2E2E2E2E2E2E20000E2E2E2E2E2000000000000000000000000000000000000000000000000000000000000000000000000000000000000000000000000000000000000000000000000000000000000000000000000
310
0000000000000000000000000000000000000000000000000000000000000000000000000000000000000000000000000000000000000000000000000000000000000000000000000000000000000000000000000000000000000000000000000000000000000000000000000000000000000000E2000063E2000000000000
310
00000000000000000000000000000000000000000000000000000000000000000000000000000000000000000000000000000000E2000000E200000000000000000000000000000000000000000000000000000000000000000000000000000000000000000000000000000000000000000000000000000000000000000000
310
00000000000000000000000000000000000000000000000000000000000000000000000000000000000000000000000000000000000000000000000000000000000000000000000000000000000000000000000000000000000000000000000000000000000000000000000000000000000000000000E2000063E200E2E2E2
310
E2E2E2E2E2E2E2E2E2E2E2E2E2E200000000000000000000000000000000000000000000000000000000000000000000000000000000E2000000E20000000000000000000000000000000000000000000000000000000000000000000000000000000000000000000000000000000000000000000000000000000000000000
310
000000000000000000000000000000000000000000000000000000000000000000000000000000000000000000000000000000000000000000000000000000000000000000000000000000000000000000000000000000000000000000000000000000000000000000000000000000000000000000000000E2000063E200E2
310
E2E2E2E2E2E2E2E2E2E2E2E2E2E2E2E2E2000000000000000000000000000000000000000000000000000000000000000000000000000000E2000000E2000000000000000000000000000000000000000000000000000000000000000000000000000000000000000000000000000000000000000000000000000000000000
310
0000000000000000000000000000000000000000000000000000000000000000000000000000000000000000000000000000000000000000000000000000000000000000000000000000000000000000000000000000000000000000000000000000000000000000000000000000000000000000000000000000E2000063E2
310
00000000000000000000000000000000000000000000000000000000000000000000000000000000000000000000000000000000000000000000E2000000E200000000000000000000000000000000000000000000000000000000000000000000000000000000000000000000000000000000000000000000000000000000
310
00000000000000000000000000000000000000000000000000000000000000000000000000000000000000000000000000000000000000000000000000000000000000000000000000000000000000000000000000000000000000000000000000000000000000000000000000000000000000000000000000000000E20000
310
00E200E2E2E2E2E2E2E2E2E2E200000000000000000000000000000000000000000000000000000000000000000000000000000000E2E2E2E2E20000E2000000E20000000000000000000000000000000000000000000000000000000000000000000000000000000000000000000000000000000000000000000000000000
310
000000000000000000000000000000000000000000000000000000000000000000000000000000000000000000000000000000000000000000000000000000000000000000000000000000000000000000000000000000000000000000000000000000000000000000000000000000000000000000000000000000000000E2
310
000063E20000000000000000000000000000000000000000000000000000000000000000000000000000000000000000000000000000E2E2E2E2E2E20000E2000000E2000000000000000000000000000000000000000000000000000000000000000000000000000000000000000000000000000000000000000000000000
310
00000000000000000000000000000000000000000000000000000000000000000000000000000000000000000000000000000000000000000000000000000000000000000000000000000000000000000000000000000000000000000000000000000000000000000000000000000000000000000000000000000000000000
310
00E2000063E200E2E2E2E2E2E2E2E2E2E2000000000000000000000000000000000000000000000000000000000000000000000000000000E2E2E2E2E2E20000E2000000E200000000000000000000000000000000000000000000000000000000000000000000000000000000000000000000000000000000000000000000
310
00000000000000000000000000000000000000000000000000000000000000000000000000000000000000000000000000000000000000000000000000000000000000000000000000000000000000000000000000000000000000000000000000000000000000000000000000000000000000000000000000000000000000
310
000000E2000063E200E2E2E2E2E2E2E2E2E2E2E200000000000000000000000000000000000000000000000000000000000000000000000000E2E2E2E2E2E2E20000E2000000E20000000000000000000000000000000000000000000000000000000000000000000000000000000000000000000000000000000000000000
310
00000000000000000000000000000000000000000000000000000000000000000000000000000000000000000000000000000000000000000000000000000000000000000000000000000000000000000000000000000000000000000000000000000000000000000000000000000000000000000000000000000000000000
310
0000000000E2000063E2E2E2E2E2E2E2E2E2E2E2E2E2E2E2E2E2E2E2E2E2E2E2E2E2E2E2E2E2E2E2E2E2E2E2E2E2E2E2E2E2E2E2E2E2E2E2E2E2E2E2E2E2E2E2E2E2E263E2000000E2000000000000000000000000000000000000000000000000000000000000000000000000000000000000000000000000000000000000
310
00000000000000000000000000000000000000000000000000000000000000000000000000000000000000000000000000000000000000000000000000000000000000000000000000000000000000000000000000000000000000000000000000000000000000000000000000000000000000000000000000000000000000
310
00000000000000E2000000E2E2E2E2E2E2E2E2E2E2E2E2E2E2E2E2E2E2E2E2E2E2E2E2E2E2E2E2E2E2E2E2E2E2E2E2E2E2E2E2E2E2E2E2E2E2E2E2E2E2E2E2E2E2E2E2E2E200E2000000E200000000000000000000000000000000000000000000000000000000000000000000000000000000000000000000000000000000
310
00000000000000000000000000000000000000000000000000000000000000000000000000000000000000000000000000000000000000000000000000000000000000000000000000000000000000000000000000000000000000000000000000000000000000000000000000000000000000000000000000000000000000
310
000000000000000000E2000000E2E2E2E2E2E2E2E2E2E2E2E2E2E2E2E2E2E2E2E2E2E2E2E2E2E2E2E2E2E2E2E2E2E2E2E2E2E2E2E2E2E2E2E2E2E2E2E2E2E2E2E2E2E2E2E2E2E200E2000000E20000000000000000000000000000000000000000000000000000000000000000000000000000000000000000000000000000
310
00000000000000000000000000000000000000000000000000000000000000000000000000000000000000000000000000000000000000000000000000000000000000000000000000000000000000000000000000000000000000000000000000000000000000000000000000000000000000000000000000000000000000
310
0000000000000000000000E2000000E2E2E2E2E2E2E2E2E2E2E2E2E2E2E2E2E2E2E2E2E2E2E2E2E2E2E2E2E2E2E2E2E2E2E2E2E2E2E2E2E2E2E2E2E2E2E2E2E2E2E2E2E2E2E2E2E2E200E2000000E2000000000000000000000000000000000000000000000000000000000000000000000000000000000000000000000000
310
00000000000000000000000000000000000000000000000000000000000000000000000000000000000000000000000000000000000000000000000000000000000000000000000000000000000000000000000000000000000000000000000000000000000000000000000000000000000000000000000000000000000000
310
00000000000000000000000000E2000000E200000000000000000000000000000000000000000000000000000000E20000000000000000000000000000000000000000000000000000000000E2000000E200000000000000000000000000000000000000000000000000000000000000000000000000000000000000000000
310
00000000000000000000000000000000000000000000000000000000000000000000000000000000000000000000000000000000000000000000000000000000000000000000000000000000000000000000000000000000000000000000000000000000000000000000000000000000000000000000000000000000000000
310
000000000000000000000000000000E2000000E200000000000000000000000000000000000000000000000000000000E20000000000000000000000000000000000000000000000000000000000E2000000E20000000000000000000000000000000000000000000000000000000000000000000000000000000000000000
310
00000000000000000000000000000000000000000000000000000000000000000000000000000000000000000000000000000000000000000000000000000000000000000000000000000000000000000000000000000000000000000000000000000000000000000000000000000000000000000000000000000000000000
310
0000000000000000000000000000000000E2E2E2E2E2E2E2E2E2E2E2E2E2E2E2E2E2E2E2E2E2E2E2E2E2E2E2E2E2E2E2E2E2E2E2E2E2E2E2E2E2E2E2E2E2E2E2E2E2E2E2E2E2E2E2E2E2E2E2E2E2E2E2E2E2E2E2E2000000000000000000000000000000000000000000000000000000000000000000000000000000000000
310
00000000000000000000000000000000000000000000000000000000000000000000000000000000000000000000000000000000000000000000000000000000000000000000000000000000000000000000000000000000000000000000000000000000000000000000000000000000000000000000000000000000000000
310
00000000000000000000000000000000000000000000000000000000000000000000000000000000000000000000000000000000000000000000000000000000000000000000000000000000000000000000000000000000000000000000000000000000000000000000000000000000000000000000000000000000000000
310
00000000000000000000000000000000000000000000000000000000000000000000000000000000000000000000000000000000000000000000000000000000000000000000000000000000000000000000000000000000000000000000000000000000000000000000000000000000000000000000000000000000000000
310
00000000000000000000000000000000000000000000000000000000000000000000000000000000000000000000000000000000000000000000000000000000000000000000000000000000000000000000000000000000000000000000000000000000000000000000000000000000000000000000000000000000000000
310
00000000000000000000000000000000000000000000000000000000000000000000000000000000000000000000000000000000000000000000000000000000000000000000000000000000000000000000000000000000000000000000000000000000000000000000000000000000000000000000000000000000000000
310
00000000000000000000000000000000000000000000000000000000000000000000000000000000000000000000000000000000000000000000000000000000000000000000000000000000000000000000000000000000000000000000000000000000000000000000000000000000000000000000000000000000000000
310
00000000000000000000000000000000000000000000000000000000000000000000000000000000000000000000000000000000000000000000000000000000000000000000000000000000000000000000000000000000000000000000000000000000000000000000000000000000000000000000000000000000000000
310
00000000000000000000000000000000000000000000000000000000000000000000000000000000000000000000000000000000000000000000000000000000000000000000000000000000000000000000000000000000000000000000000000000000000000000000000000000000000000000000000000000000000000
310
00000000000000000000000000000000000000000000000000000000000000000000000000000000000000000000000000000000000000000000000000000000000000000000000000000000000000000000000000000000000000000000000000000000000000000000000000000000000000000000000000000000000000
310
00000000000000000000000000000000000000000000000000000000000000000000000000000000000000000000000000000000000000000000000000000000000000000000000000000000000000000000000000000000000000000000000000000000000000000000000000000000000000000000000000000000000000
310
00000000000000000000000000000000000000000000000000000000000000000000000000000000000000000000000000000000000000000000000000000000000000000000000000000000000000000000000000000000000000000000000000000000000000000000000000000000000000000000000000000000000000
310
00000000000000000000000000000000000000000000000000000000000000000000000000000000000000000000000000000000000000000000000000000000000000000000000000000000000000000000000000000000000000000000000000000000000000000000000000000000000000000000000000000000000000
310
00000000000000000000000000000000000000000000000000000000000000000000000000000000000000000000000000000000000000000000000000000000000000000000000000000000000000000000000000000000000000000000000000000000000000000000000000000000000000000000000000000000000000
310
00000000000000000000000000000000000000000000000000000000000000000000000000000000000000000000000000000000000000000000000000000000000000000000000000000000000000000000000000000000000000000000000000000000000000000000000000000000000000000000000000000000000000
310
00000000000000000000000000000000000000000000000000000000000000000000000000000000000000000000000000000000000000000000000000000000000000000000000000000000000000000000000000000000000000000000000000000000000000000000000000000000000000000000000000000000000000
310
00000000000000000000000000000000000000000000000000000000000000000000000000000000000000000000000000000000000000000000000000000000000000000000000000000000000000000000000000000000000000000000000000000000000000000000000000000000000000000000000000000000000000
310
00000000000000000000000000000000000000000000000000000000000000000000000000000000000000000000000000000000000000000000000000000000000000000000000000000000000000000000000000000000000000000000000000000000000000000000000000000000000000000000000000000000000000
310
00000000000000000000000000000000000000000000000000000000000000000000000000000000000000000000000000000000000000000000000000000000000000000000000000000000000000000000000000000000000000000000000000000000000000000000000000000000000000000000000000000000000000
310
00000000000000000000000000000000000000000000000000000000000000000000000000000000000000000000000000000000000000000000000000000000000000000000000000000000000000000000000000000000000000000000000000000000000000000000000000000000000000000000000000000000000000
310
00000000000000000000000000000000000000000000000000000000000000000000000000000000000000000000000000000000000000000000000000000000000000000000000000000000000000000000000000000000000000000000000000000000000000000000000000000000000000000000000000000000000000
310
00000000000000000000000000000000000000000000000000000000000000000000000000000000000000000000000000000000000000000000000000000000000000000000000000000000000000000000000000000000000000000000000000000000000000000000000000000000000000000000000000000000000000
310
00000000000000000000000000000000000000000000000000000000000000000000000000000000000000000000000000000000000000000000000000000000000000000000000000000000000000000000000000000000000000000000000000000000000000000000000000000000000000000000000000000000000000
310
00000000000000000000000000000000000000000000000000000000000000000000000000000000000000000000000000000000000000000000000000000000000000000000000000000000000000000000000000000000000000000000000000000000000000000000000000000000000000000000000000000000000000
310
00000000000000000000000000000000000000000000000000000000000000000000000000000000000000000000000000000000000000000000000000000000000000000000000000000000000000000000000000000000000000000000000000000000000000000000000000000000000000000000000000000000000000
310
00000000000000000000000000000000000000000000000000000000000000000000000000000000000000000000000000000000000000000000000000000000000000000000000000000000000000000000000000000000000000000000000000000000000000000000000000000000000000000000000000000000000000
310
00000000000000000000000000000000000000000000000000000000000000000000000000000000000000000000000000000000000000000000000000000000000000000000000000000000000000000000000000000000000000000000000000000000000000000000000000000000000000000000000000000000000000
310
0000000000000000000000000000000000000000000000000000000000000000000000000000000000000000000000000000000000000000000000000000
  0
XRECORD
  5
297BA
102
{ACAD_REACTORS
330
2941A
102
}
330
2941A
100
AcDbXrecord
280
     1
102
MATERIAL
148
0.0
149
0.0
149
0.0
 93
        0
 94
      127
282
     0
 72
     0
 77
     0
171
     0
175
     0
179
     0
273
     0
  0
XRECORD
  5
2941C
102
{ACAD_REACTORS
330
2941A
102
}
330
2941A
100
AcDbXrecord
280
     1
270
     1
271
     1
  0
XRECORD
  5
2941B
102
{ACAD_REACTORS
330
2941A
102
}
330
2941A
100
AcDbXrecord
280
     1
270
     1
271
     1
  0
XRECORD
  5
2941F
102
{ACAD_REACTORS
330
2941A
102
}
330
2941A
100
AcDbXrecord
280
     1
270
     1
271
     1
  0
XRECORD
  5
2941E
102
{ACAD_REACTORS
330
2941A
102
}
330
2941A
100
AcDbXrecord
280
     1
270
     1
271
     1
  0
XRECORD
  5
29420
102
{ACAD_REACTORS
330
2941A
102
}
330
2941A
100
AcDbXrecord
280
     1
270
     1
271
     1
  0
XRECORD
  5
2941D
102
{ACAD_REACTORS
330
2941A
102
}
330
2941A
100
AcDbXrecord
280
     1
270
     1
271
     1
  0
XRECORD
  5
297B9
102
{ACAD_REACTORS
330
29412
102
}
330
29412
100
AcDbXrecord
280
     1
102
MATERIAL
148
0.0
149
0.0
149
0.0
 93
        0
 94
      127
282
     0
 72
     0
 77
     0
171
     0
175
     0
179
     0
273
     0
  0
XRECORD
  5
29414
102
{ACAD_REACTORS
330
29412
102
}
330
29412
100
AcDbXrecord
280
     1
270
     1
271
     1
  0
XRECORD
  5
29413
102
{ACAD_REACTORS
330
29412
102
}
330
29412
100
AcDbXrecord
280
     1
270
     1
271
     1
  0
XRECORD
  5
29417
102
{ACAD_REACTORS
330
29412
102
}
330
29412
100
AcDbXrecord
280
     1
270
     1
271
     1
  0
XRECORD
  5
29416
102
{ACAD_REACTORS
330
29412
102
}
330
29412
100
AcDbXrecord
280
     1
270
     1
271
     1
  0
XRECORD
  5
29418
102
{ACAD_REACTORS
330
29412
102
}
330
29412
100
AcDbXrecord
280
     1
270
     1
271
     1
  0
XRECORD
  5
29415
102
{ACAD_REACTORS
330
29412
102
}
330
29412
100
AcDbXrecord
280
     1
270
     1
271
     1
  0
XRECORD
  5
297BB
102
{ACAD_REACTORS
330
29422
102
}
330
29422
100
AcDbXrecord
280
     1
102
MATERIAL
148
0.0
149
0.0
149
0.0
 93
        0
 94
      127
282
     0
 72
     0
 77
     0
171
     0
175
     0
179
     0
273
     0
  0
XRECORD
  5
29424
102
{ACAD_REACTORS
330
29422
102
}
330
29422
100
AcDbXrecord
280
     1
270
     1
271
     1
  0
XRECORD
  5
29423
102
{ACAD_REACTORS
330
29422
102
}
330
29422
100
AcDbXrecord
280
     1
270
     1
271
     1
  0
XRECORD
  5
29427
102
{ACAD_REACTORS
330
29422
102
}
330
29422
100
AcDbXrecord
280
     1
270
     1
271
     1
  0
XRECORD
  5
29426
102
{ACAD_REACTORS
330
29422
102
}
330
29422
100
AcDbXrecord
280
     1
270
     1
271
     1
  0
XRECORD
  5
29428
102
{ACAD_REACTORS
330
29422
102
}
330
29422
100
AcDbXrecord
280
     1
270
     1
271
     1
  0
XRECORD
  5
29425
102
{ACAD_REACTORS
330
29422
102
}
330
29422
100
AcDbXrecord
280
     1
270
     1
271
     1
  0
XRECORD
  5
297B3
102
{ACAD_REACTORS
330
297B2
102
}
330
297B2
100
AcDbXrecord
280
     1
102
ACAD_ROUNDTRIP_2012_MLEADER_STYLE
298
     1
  0
CELLSTYLEMAP
  5
297B1
102
{ACAD_REACTORS
330
297B0
102
}
330
297B0
100
AcDbCellStyleMap
 90
        3
300
CELLSTYLE
  1
TABLEFORMAT_BEGIN
 90
        5
170
     1
 91
        0
 92
    32768
 62
   257
 93
        1
300
CONTENTFORMAT
  1
CONTENTFORMAT_BEGIN
 90
        0
 91
        0
 92
      512
 93
        0
300

 40
0.0
140
1.0
 94
        5
 62
     0
340
10
144
0.25
309
CONTENTFORMAT_END
171
     0
 94
        0
309
TABLEFORMAT_END
  1
CELLSTYLE_BEGIN
 90
        1
 91
        1
300
_TITLE
309
CELLSTYLE_END
300
CELLSTYLE
  1
TABLEFORMAT_BEGIN
 90
        5
170
     1
 91
        0
 92
        0
 62
   257
 93
        1
300
CONTENTFORMAT
  1
CONTENTFORMAT_BEGIN
 90
        0
 91
        0
 92
      512
 93
        0
300

 40
0.0
140
1.0
 94
        5
 62
     0
340
10
144
0.18
309
CONTENTFORMAT_END
171
     0
 94
        0
309
TABLEFORMAT_END
  1
CELLSTYLE_BEGIN
 90
        2
 91
        1
300
_HEADER
309
CELLSTYLE_END
300
CELLSTYLE
  1
TABLEFORMAT_BEGIN
 90
        5
170
     1
 91
        0
 92
        0
 62
   257
 93
        1
300
CONTENTFORMAT
  1
CONTENTFORMAT_BEGIN
 90
        0
 91
        0
 92
      512
 93
        0
300

 40
0.0
140
1.0
 94
        2
 62
     0
340
10
144
0.18
309
CONTENTFORMAT_END
171
     0
 94
        0
309
TABLEFORMAT_END
  1
CELLSTYLE_BEGIN
 90
        3
 91
        2
300
_DATA
309
CELLSTYLE_END
  0
XRECORD
  5
297EC
102
{ACAD_REACTORS
330
297B0
102
}
330
297B0
100
AcDbXrecord
280
     1
102
ACAD_ROUNDTRIP_PRE2007_TABLESTYLE
 90
      512
 91
        0
  1

 92
      512
 93
        0
  2

 94
      512
 95
        0
  3

  0
XRECORD
  5
297C7
102
{ACAD_REACTORS
330
297C6
102
}
330
297C6
100
AcDbXrecord
280
     1
102
RTVSPropertyOp0
 70
     1
102
RTVSPropertyOp1
 70
     1
102
RTVSPropertyOp2
 70
     1
102
RTVSPropertyOp3
 70
     1
102
RTVSPropertyOp4
 70
     1
102
RTVSPropertyOp5
 70
     1
102
RTVSPropertyOp6
 70
     1
102
RTVSPropertyOp7
 70
     1
102
RTVSPropertyOp8
 70
     1
102
RTVSPropertyOp9
 70
     1
102
RTVSPropertyOp10
 70
     1
102
RTVSPropertyOp11
 70
     1
102
RTVSPropertyOp12
 70
     1
102
RTVSPropertyOp13
 70
     1
102
RTVSPropertyOp14
 70
     1
102
RTVSPropertyOp15
 70
     1
102
RTVSPropertyOp16
 70
     1
102
RTVSPropertyOp17
 70
     1
102
RTVSPropertyOp18
 70
     1
102
RTVSPropertyOp19
 70
     1
102
RTVSPropertyOp20
 70
     1
102
RTVSPropertyOp21
 70
     1
102
RTVSPropertyOp22
 70
     1
102
RTVSPropertyOp23
 70
     1
102
RTVSPropertyOp24
 70
     1
102
RTVSPropertyOp25
 70
     1
102
RTVSPropertyOp26
 70
     1
102
RTVSPropertyOp27
 70
     1
102
RTVSPropertyOp28
 70
     1
102
RTVSPropertyOp29
 70
     1
102
RTVSPropertyOp30
 70
     1
102
RTVSPropertyOp31
 70
     1
102
RTVSPropertyOp32
 70
     1
  0
XRECORD
  5
297C5
102
{ACAD_REACTORS
330
297C4
102
}
330
297C4
100
AcDbXrecord
280
     1
102
RTVSPropertyOp0
 70
     1
102
RTVSPropertyOp1
 70
     1
102
RTVSPropertyOp2
 70
     1
102
RTVSPropertyOp3
 70
     1
102
RTVSPropertyOp4
 70
     1
102
RTVSPropertyOp5
 70
     1
102
RTVSPropertyOp6
 70
     1
102
RTVSPropertyOp7
 70
     1
102
RTVSPropertyOp8
 70
     1
102
RTVSPropertyOp9
 70
     1
102
RTVSPropertyOp10
 70
     1
102
RTVSPropertyOp11
 70
     1
102
RTVSPropertyOp12
 70
     1
102
RTVSPropertyOp13
 70
     1
102
RTVSPropertyOp14
 70
     1
102
RTVSPropertyOp15
 70
     1
102
RTVSPropertyOp16
 70
     1
102
RTVSPropertyOp17
 70
     1
102
RTVSPropertyOp18
 70
     1
102
RTVSPropertyOp19
 70
     1
102
RTVSPropertyOp20
 70
     1
102
RTVSPropertyOp21
 70
     1
102
RTVSPropertyOp22
 70
     1
102
RTVSPropertyOp23
 70
     1
102
RTVSPropertyOp24
 70
     1
102
RTVSPropertyOp25
 70
     1
102
RTVSPropertyOp26
 70
     1
102
RTVSPropertyOp27
 70
     1
102
RTVSPropertyOp28
 70
     1
102
RTVSPropertyOp29
 70
     1
102
RTVSPropertyOp30
 70
     1
102
RTVSPropertyOp31
 70
     1
102
RTVSPropertyOp32
 70
     1
  0
XRECORD
  5
297D3
102
{ACAD_REACTORS
330
297D2
102
}
330
297D2
100
AcDbXrecord
280
     1
102
RTVSPropertyOp0
 70
     1
102
RTVSPropertyOp1
 70
     1
102
RTVSPropertyOp2
 70
     1
102
RTVSPropertyOp3
 70
     1
102
RTVSPropertyOp4
 70
     1
102
RTVSPropertyOp5
 70
     1
102
RTVSPropertyOp6
 70
     1
102
RTVSPropertyOp7
 70
     1
102
RTVSPropertyOp8
 70
     1
102
RTVSPropertyOp9
 70
     1
102
RTVSPropertyOp10
 70
     1
102
RTVSPropertyOp11
 70
     1
102
RTVSPropertyOp12
 70
     1
102
RTVSPropertyOp13
 70
     1
102
RTVSPropertyOp14
 70
     1
102
RTVSPropertyOp15
 70
     1
102
RTVSPropertyOp16
 70
     1
102
RTVSPropertyOp17
 70
     1
102
RTVSPropertyOp18
 70
     1
102
RTVSPropertyOp19
 70
     1
102
RTVSPropertyOp20
 70
     1
102
RTVSPropertyOp21
 70
     1
102
RTVSPropertyOp22
 70
     1
102
RTVSPropertyOp23
 70
     1
102
RTVSPropertyOp24
 70
     1
102
RTVSPropertyOp25
 70
     1
102
RTVSPropertyOp26
 70
     1
102
RTVSPropertyOp27
 70
     1
102
RTVSPropertyOp28
 70
     1
102
RTVSPropertyOp29
 70
     1
102
RTVSPropertyOp30
 70
     1
102
RTVSPropertyOp31
 70
     1
102
RTVSPropertyOp32
 70
     1
  0
XRECORD
  5
297DB
102
{ACAD_REACTORS
330
297DA
102
}
330
297DA
100
AcDbXrecord
280
     1
102
RTVSPropertyOp0
 70
     1
102
RTVSPropertyOp1
 70
     1
102
RTVSPropertyOp2
 70
     1
102
RTVSPropertyOp3
 70
     1
102
RTVSPropertyOp4
 70
     1
102
RTVSPropertyOp5
 70
     1
102
RTVSPropertyOp6
 70
     1
102
RTVSPropertyOp7
 70
     1
102
RTVSPropertyOp8
 70
     1
102
RTVSPropertyOp9
 70
     1
102
RTVSPropertyOp10
 70
     1
102
RTVSPropertyOp11
 70
     1
102
RTVSPropertyOp12
 70
     1
102
RTVSPropertyOp13
 70
     1
102
RTVSPropertyOp14
 70
     1
102
RTVSPropertyOp15
 70
     1
102
RTVSPropertyOp16
 70
     1
102
RTVSPropertyOp17
 70
     1
102
RTVSPropertyOp18
 70
     1
102
RTVSPropertyOp19
 70
     1
102
RTVSPropertyOp20
 70
     1
102
RTVSPropertyOp21
 70
     1
102
RTVSPropertyOp22
 70
     1
102
RTVSPropertyOp23
 70
     1
102
RTVSPropertyOp24
 70
     1
102
RTVSPropertyOp25
 70
     1
102
RTVSPropertyOp26
 70
     1
102
RTVSPropertyOp27
 70
     1
102
RTVSPropertyOp28
 70
     1
102
RTVSPropertyOp29
 70
     1
102
RTVSPropertyOp30
 70
     1
102
RTVSPropertyOp31
 70
     1
102
RTVSPropertyOp32
 70
     1
  0
XRECORD
  5
297CD
102
{ACAD_REACTORS
330
297CC
102
}
330
297CC
100
AcDbXrecord
280
     1
102
RTVSPropertyOp0
 70
     1
102
RTVSPropertyOp1
 70
     1
102
RTVSPropertyOp2
 70
     1
102
RTVSPropertyOp3
 70
     1
102
RTVSPropertyOp4
 70
     1
102
RTVSPropertyOp5
 70
     1
102
RTVSPropertyOp6
 70
     1
102
RTVSPropertyOp7
 70
     1
102
RTVSPropertyOp8
 70
     1
102
RTVSPropertyOp9
 70
     1
102
RTVSPropertyOp10
 70
     1
102
RTVSPropertyOp11
 70
     1
102
RTVSPropertyOp12
 70
     1
102
RTVSPropertyOp13
 70
     1
102
RTVSPropertyOp14
 70
     1
102
RTVSPropertyOp15
 70
     1
102
RTVSPropertyOp16
 70
     1
102
RTVSPropertyOp17
 70
     1
102
RTVSPropertyOp18
 70
     1
102
RTVSPropertyOp19
 70
     1
102
RTVSPropertyOp20
 70
     1
102
RTVSPropertyOp21
 70
     1
102
RTVSPropertyOp22
 70
     1
102
RTVSPropertyOp23
 70
     1
102
RTVSPropertyOp24
 70
     1
102
RTVSPropertyOp25
 70
     1
102
RTVSPropertyOp26
 70
     1
102
RTVSPropertyOp27
 70
     1
102
RTVSPropertyOp28
 70
     1
102
RTVSPropertyOp29
 70
     1
102
RTVSPropertyOp30
 70
     1
102
RTVSPropertyOp31
 70
     1
102
RTVSPropertyOp32
 70
     1
  0
XRECORD
  5
297D1
102
{ACAD_REACTORS
330
297D0
102
}
330
297D0
100
AcDbXrecord
280
     1
102
RTVSPropertyOp0
 70
     1
102
RTVSPropertyOp1
 70
     1
102
RTVSPropertyOp2
 70
     1
102
RTVSPropertyOp3
 70
     1
102
RTVSPropertyOp4
 70
     1
102
RTVSPropertyOp5
 70
     1
102
RTVSPropertyOp6
 70
     1
102
RTVSPropertyOp7
 70
     1
102
RTVSPropertyOp8
 70
     1
102
RTVSPropertyOp9
 70
     1
102
RTVSPropertyOp10
 70
     1
102
RTVSPropertyOp11
 70
     1
102
RTVSPropertyOp12
 70
     1
102
RTVSPropertyOp13
 70
     1
102
RTVSPropertyOp14
 70
     1
102
RTVSPropertyOp15
 70
     1
102
RTVSPropertyOp16
 70
     1
102
RTVSPropertyOp17
 70
     1
102
RTVSPropertyOp18
 70
     1
102
RTVSPropertyOp19
 70
     1
102
RTVSPropertyOp20
 70
     1
102
RTVSPropertyOp21
 70
     1
102
RTVSPropertyOp22
 70
     1
102
RTVSPropertyOp23
 70
     1
102
RTVSPropertyOp24
 70
     1
102
RTVSPropertyOp25
 70
     1
102
RTVSPropertyOp26
 70
     1
102
RTVSPropertyOp27
 70
     1
102
RTVSPropertyOp28
 70
     1
102
RTVSPropertyOp29
 70
     1
102
RTVSPropertyOp30
 70
     1
102
RTVSPropertyOp31
 70
     1
102
RTVSPropertyOp32
 70
     1
  0
XRECORD
  5
297EB
102
{ACAD_REACTORS
330
297EA
102
}
330
297EA
100
AcDbXrecord
280
     1
102
RTVSPropertyOp0
 70
     0
102
RTVSPropertyOp1
 70
     0
102
RTVSPropertyOp2
 70
     0
102
RTVSPropertyOp3
 70
     0
102
RTVSPropertyOp4
 70
     0
102
RTVSPropertyOp5
 70
     0
102
RTVSPropertyOp6
 70
     0
102
RTVSPropertyOp7
 70
     0
102
RTVSPropertyOp8
 70
     0
102
RTVSPropertyOp9
 70
     0
102
RTVSPropertyOp10
 70
     0
102
RTVSPropertyOp11
 70
     0
102
RTVSPropertyOp12
 70
     0
102
RTVSPropertyOp13
 70
     0
102
RTVSPropertyOp14
 70
     2
102
RTVSPropertyOp15
 70
     0
102
RTVSPropertyOp16
 70
     0
102
RTVSPropertyOp17
 70
     0
102
RTVSPropertyOp18
 70
     0
102
RTVSPropertyOp19
 70
     0
102
RTVSPropertyOp20
 70
     0
102
RTVSPropertyOp21
 70
     0
102
RTVSPropertyOp22
 70
     0
102
RTVSPropertyOp23
 70
     0
102
RTVSPropertyOp24
 70
     0
102
RTVSPropertyOp25
 70
     0
102
RTVSPropertyOp26
 70
     0
102
RTVSPropertyOp27
 70
     0
102
RTVSPropertyOp28
 70
     1
102
RTVSPropertyOp29
 70
     1
102
RTVSPropertyOp30
 70
     1
102
RTVSPropertyOp31
 70
     1
102
RTVSPropertyOp32
 70
     1
  0
XRECORD
  5
297D9
102
{ACAD_REACTORS
330
297D8
102
}
330
297D8
100
AcDbXrecord
280
     1
102
RTVSPropertyOp0
 70
     1
102
RTVSPropertyOp1
 70
     1
102
RTVSPropertyOp2
 70
     1
102
RTVSPropertyOp3
 70
     1
102
RTVSPropertyOp4
 70
     1
102
RTVSPropertyOp5
 70
     1
102
RTVSPropertyOp6
 70
     1
102
RTVSPropertyOp7
 70
     1
102
RTVSPropertyOp8
 70
     1
102
RTVSPropertyOp9
 70
     1
102
RTVSPropertyOp10
 70
     1
102
RTVSPropertyOp11
 70
     1
102
RTVSPropertyOp12
 70
     1
102
RTVSPropertyOp13
 70
     1
102
RTVSPropertyOp14
 70
     1
102
RTVSPropertyOp15
 70
     1
102
RTVSPropertyOp16
 70
     1
102
RTVSPropertyOp17
 70
     1
102
RTVSPropertyOp18
 70
     1
102
RTVSPropertyOp19
 70
     1
102
RTVSPropertyOp20
 70
     1
102
RTVSPropertyOp21
 70
     1
102
RTVSPropertyOp22
 70
     1
102
RTVSPropertyOp23
 70
     1
102
RTVSPropertyOp24
 70
     1
102
RTVSPropertyOp25
 70
     1
102
RTVSPropertyOp26
 70
     1
102
RTVSPropertyOp27
 70
     1
102
RTVSPropertyOp28
 70
     1
102
RTVSPropertyOp29
 70
     1
102
RTVSPropertyOp30
 70
     1
102
RTVSPropertyOp31
 70
     1
102
RTVSPropertyOp32
 70
     1
  0
XRECORD
  5
297BD
102
{ACAD_REACTORS
330
297BC
102
}
330
297BC
100
AcDbXrecord
280
     1
102
RTVSPropertyOp0
 70
     1
102
RTVSPropertyOp1
 70
     1
102
RTVSPropertyOp2
 70
     1
102
RTVSPropertyOp3
 70
     1
102
RTVSPropertyOp4
 70
     1
102
RTVSPropertyOp5
 70
     1
102
RTVSPropertyOp6
 70
     1
102
RTVSPropertyOp7
 70
     1
102
RTVSPropertyOp8
 70
     1
102
RTVSPropertyOp9
 70
     1
102
RTVSPropertyOp10
 70
     1
102
RTVSPropertyOp11
 70
     1
102
RTVSPropertyOp12
 70
     1
102
RTVSPropertyOp13
 70
     1
102
RTVSPropertyOp14
 70
     1
102
RTVSPropertyOp15
 70
     1
102
RTVSPropertyOp16
 70
     1
102
RTVSPropertyOp17
 70
     1
102
RTVSPropertyOp18
 70
     1
102
RTVSPropertyOp19
 70
     1
102
RTVSPropertyOp20
 70
     1
102
RTVSPropertyOp21
 70
     1
102
RTVSPropertyOp22
 70
     1
102
RTVSPropertyOp23
 70
     1
102
RTVSPropertyOp24
 70
     1
102
RTVSPropertyOp25
 70
     1
102
RTVSPropertyOp26
 70
     1
102
RTVSPropertyOp27
 70
     1
102
RTVSPropertyOp28
 70
     1
102
RTVSPropertyOp29
 70
     1
102
RTVSPropertyOp30
 70
     1
102
RTVSPropertyOp31
 70
     1
102
RTVSPropertyOp32
 70
     1
  0
XRECORD
  5
297BF
102
{ACAD_REACTORS
330
297BE
102
}
330
297BE
100
AcDbXrecord
280
     1
102
RTVSPropertyOp0
 70
     1
102
RTVSPropertyOp1
 70
     1
102
RTVSPropertyOp2
 70
     1
102
RTVSPropertyOp3
 70
     1
102
RTVSPropertyOp4
 70
     1
102
RTVSPropertyOp5
 70
     1
102
RTVSPropertyOp6
 70
     1
102
RTVSPropertyOp7
 70
     1
102
RTVSPropertyOp8
 70
     1
102
RTVSPropertyOp9
 70
     1
102
RTVSPropertyOp10
 70
     1
102
RTVSPropertyOp11
 70
     1
102
RTVSPropertyOp12
 70
     1
102
RTVSPropertyOp13
 70
     1
102
RTVSPropertyOp14
 70
     1
102
RTVSPropertyOp15
 70
     1
102
RTVSPropertyOp16
 70
     1
102
RTVSPropertyOp17
 70
     1
102
RTVSPropertyOp18
 70
     1
102
RTVSPropertyOp19
 70
     1
102
RTVSPropertyOp20
 70
     1
102
RTVSPropertyOp21
 70
     1
102
RTVSPropertyOp22
 70
     1
102
RTVSPropertyOp23
 70
     1
102
RTVSPropertyOp24
 70
     1
102
RTVSPropertyOp25
 70
     1
102
RTVSPropertyOp26
 70
     1
102
RTVSPropertyOp27
 70
     1
102
RTVSPropertyOp28
 70
     1
102
RTVSPropertyOp29
 70
     1
102
RTVSPropertyOp30
 70
     1
102
RTVSPropertyOp31
 70
     1
102
RTVSPropertyOp32
 70
     1
  0
XRECORD
  5
297C1
102
{ACAD_REACTORS
330
297C0
102
}
330
297C0
100
AcDbXrecord
280
     1
102
RTVSPropertyOp0
 70
     1
102
RTVSPropertyOp1
 70
     1
102
RTVSPropertyOp2
 70
     1
102
RTVSPropertyOp3
 70
     1
102
RTVSPropertyOp4
 70
     1
102
RTVSPropertyOp5
 70
     1
102
RTVSPropertyOp6
 70
     1
102
RTVSPropertyOp7
 70
     1
102
RTVSPropertyOp8
 70
     1
102
RTVSPropertyOp9
 70
     1
102
RTVSPropertyOp10
 70
     1
102
RTVSPropertyOp11
 70
     1
102
RTVSPropertyOp12
 70
     1
102
RTVSPropertyOp13
 70
     1
102
RTVSPropertyOp14
 70
     1
102
RTVSPropertyOp15
 70
     1
102
RTVSPropertyOp16
 70
     1
102
RTVSPropertyOp17
 70
     1
102
RTVSPropertyOp18
 70
     1
102
RTVSPropertyOp19
 70
     1
102
RTVSPropertyOp20
 70
     1
102
RTVSPropertyOp21
 70
     1
102
RTVSPropertyOp22
 70
     1
102
RTVSPropertyOp23
 70
     1
102
RTVSPropertyOp24
 70
     1
102
RTVSPropertyOp25
 70
     1
102
RTVSPropertyOp26
 70
     1
102
RTVSPropertyOp27
 70
     1
102
RTVSPropertyOp28
 70
     1
102
RTVSPropertyOp29
 70
     1
102
RTVSPropertyOp30
 70
     1
102
RTVSPropertyOp31
 70
     1
102
RTVSPropertyOp32
 70
     1
  0
XRECORD
  5
297C3
102
{ACAD_REACTORS
330
297C2
102
}
330
297C2
100
AcDbXrecord
280
     1
102
RTVSPropertyOp0
 70
     1
102
RTVSPropertyOp1
 70
     1
102
RTVSPropertyOp2
 70
     1
102
RTVSPropertyOp3
 70
     1
102
RTVSPropertyOp4
 70
     1
102
RTVSPropertyOp5
 70
     1
102
RTVSPropertyOp6
 70
     1
102
RTVSPropertyOp7
 70
     1
102
RTVSPropertyOp8
 70
     1
102
RTVSPropertyOp9
 70
     1
102
RTVSPropertyOp10
 70
     1
102
RTVSPropertyOp11
 70
     1
102
RTVSPropertyOp12
 70
     1
102
RTVSPropertyOp13
 70
     1
102
RTVSPropertyOp14
 70
     1
102
RTVSPropertyOp15
 70
     1
102
RTVSPropertyOp16
 70
     1
102
RTVSPropertyOp17
 70
     1
102
RTVSPropertyOp18
 70
     1
102
RTVSPropertyOp19
 70
     1
102
RTVSPropertyOp20
 70
     1
102
RTVSPropertyOp21
 70
     1
102
RTVSPropertyOp22
 70
     1
102
RTVSPropertyOp23
 70
     1
102
RTVSPropertyOp24
 70
     1
102
RTVSPropertyOp25
 70
     1
102
RTVSPropertyOp26
 70
     1
102
RTVSPropertyOp27
 70
     1
102
RTVSPropertyOp28
 70
     1
102
RTVSPropertyOp29
 70
     1
102
RTVSPropertyOp30
 70
     1
102
RTVSPropertyOp31
 70
     1
102
RTVSPropertyOp32
 70
     1
  0
XRECORD
  5
297CB
102
{ACAD_REACTORS
330
297CA
102
}
330
297CA
100
AcDbXrecord
280
     1
102
RTVSPropertyOp0
 70
     1
102
RTVSPropertyOp1
 70
     1
102
RTVSPropertyOp2
 70
     1
102
RTVSPropertyOp3
 70
     1
102
RTVSPropertyOp4
 70
     1
102
RTVSPropertyOp5
 70
     1
102
RTVSPropertyOp6
 70
     1
102
RTVSPropertyOp7
 70
     1
102
RTVSPropertyOp8
 70
     1
102
RTVSPropertyOp9
 70
     1
102
RTVSPropertyOp10
 70
     1
102
RTVSPropertyOp11
 70
     1
102
RTVSPropertyOp12
 70
     1
102
RTVSPropertyOp13
 70
     1
102
RTVSPropertyOp14
 70
     1
102
RTVSPropertyOp15
 70
     1
102
RTVSPropertyOp16
 70
     1
102
RTVSPropertyOp17
 70
     1
102
RTVSPropertyOp18
 70
     1
102
RTVSPropertyOp19
 70
     1
102
RTVSPropertyOp20
 70
     1
102
RTVSPropertyOp21
 70
     1
102
RTVSPropertyOp22
 70
     1
102
RTVSPropertyOp23
 70
     1
102
RTVSPropertyOp24
 70
     1
102
RTVSPropertyOp25
 70
     1
102
RTVSPropertyOp26
 70
     1
102
RTVSPropertyOp27
 70
     1
102
RTVSPropertyOp28
 70
     1
102
RTVSPropertyOp29
 70
     1
102
RTVSPropertyOp30
 70
     1
102
RTVSPropertyOp31
 70
     1
102
RTVSPropertyOp32
 70
     1
  0
XRECORD
  5
297E7
102
{ACAD_REACTORS
330
297E6
102
}
330
297E6
100
AcDbXrecord
280
     1
102
RTVSPropertyOp0
 70
     0
102
RTVSPropertyOp1
 70
     0
102
RTVSPropertyOp2
 70
     0
102
RTVSPropertyOp3
 70
     0
102
RTVSPropertyOp4
 70
     0
102
RTVSPropertyOp5
 70
     0
102
RTVSPropertyOp6
 70
     0
102
RTVSPropertyOp7
 70
     0
102
RTVSPropertyOp8
 70
     0
102
RTVSPropertyOp9
 70
     0
102
RTVSPropertyOp10
 70
     0
102
RTVSPropertyOp11
 70
     0
102
RTVSPropertyOp12
 70
     0
102
RTVSPropertyOp13
 70
     0
102
RTVSPropertyOp14
 70
     2
102
RTVSPropertyOp15
 70
     0
102
RTVSPropertyOp16
 70
     0
102
RTVSPropertyOp17
 70
     0
102
RTVSPropertyOp18
 70
     0
102
RTVSPropertyOp19
 70
     0
102
RTVSPropertyOp20
 70
     0
102
RTVSPropertyOp21
 70
     0
102
RTVSPropertyOp22
 70
     0
102
RTVSPropertyOp23
 70
     0
102
RTVSPropertyOp24
 70
     0
102
RTVSPropertyOp25
 70
     0
102
RTVSPropertyOp26
 70
     0
102
RTVSPropertyOp27
 70
     0
102
RTVSPropertyOp28
 70
     1
102
RTVSPropertyOp29
 70
     1
102
RTVSPropertyOp30
 70
     1
102
RTVSPropertyOp31
 70
     1
102
RTVSPropertyOp32
 70
     1
  0
XRECORD
  5
297D7
102
{ACAD_REACTORS
330
297D6
102
}
330
297D6
100
AcDbXrecord
280
     1
102
RTVSPropertyOp0
 70
     1
102
RTVSPropertyOp1
 70
     1
102
RTVSPropertyOp2
 70
     1
102
RTVSPropertyOp3
 70
     1
102
RTVSPropertyOp4
 70
     1
102
RTVSPropertyOp5
 70
     1
102
RTVSPropertyOp6
 70
     1
102
RTVSPropertyOp7
 70
     1
102
RTVSPropertyOp8
 70
     1
102
RTVSPropertyOp9
 70
     1
102
RTVSPropertyOp10
 70
     1
102
RTVSPropertyOp11
 70
     1
102
RTVSPropertyOp12
 70
     1
102
RTVSPropertyOp13
 70
     1
102
RTVSPropertyOp14
 70
     1
102
RTVSPropertyOp15
 70
     1
102
RTVSPropertyOp16
 70
     1
102
RTVSPropertyOp17
 70
     1
102
RTVSPropertyOp18
 70
     1
102
RTVSPropertyOp19
 70
     1
102
RTVSPropertyOp20
 70
     1
102
RTVSPropertyOp21
 70
     1
102
RTVSPropertyOp22
 70
     1
102
RTVSPropertyOp23
 70
     1
102
RTVSPropertyOp24
 70
     1
102
RTVSPropertyOp25
 70
     1
102
RTVSPropertyOp26
 70
     1
102
RTVSPropertyOp27
 70
     1
102
RTVSPropertyOp28
 70
     1
102
RTVSPropertyOp29
 70
     1
102
RTVSPropertyOp30
 70
     1
102
RTVSPropertyOp31
 70
     1
102
RTVSPropertyOp32
 70
     1
  0
XRECORD
  5
297E9
102
{ACAD_REACTORS
330
297E8
102
}
330
297E8
100
AcDbXrecord
280
     1
102
RTVSPropertyOp0
 70
     0
102
RTVSPropertyOp1
 70
     0
102
RTVSPropertyOp2
 70
     0
102
RTVSPropertyOp3
 70
     0
102
RTVSPropertyOp4
 70
     0
102
RTVSPropertyOp5
 70
     0
102
RTVSPropertyOp6
 70
     0
102
RTVSPropertyOp7
 70
     0
102
RTVSPropertyOp8
 70
     0
102
RTVSPropertyOp9
 70
     0
102
RTVSPropertyOp10
 70
     0
102
RTVSPropertyOp11
 70
     0
102
RTVSPropertyOp12
 70
     0
102
RTVSPropertyOp13
 70
     0
102
RTVSPropertyOp14
 70
     2
102
RTVSPropertyOp15
 70
     0
102
RTVSPropertyOp16
 70
     0
102
RTVSPropertyOp17
 70
     0
102
RTVSPropertyOp18
 70
     0
102
RTVSPropertyOp19
 70
     0
102
RTVSPropertyOp20
 70
     0
102
RTVSPropertyOp21
 70
     0
102
RTVSPropertyOp22
 70
     0
102
RTVSPropertyOp23
 70
     0
102
RTVSPropertyOp24
 70
     0
102
RTVSPropertyOp25
 70
     0
102
RTVSPropertyOp26
 70
     0
102
RTVSPropertyOp27
 70
     0
102
RTVSPropertyOp28
 70
     1
102
RTVSPropertyOp29
 70
     1
102
RTVSPropertyOp30
 70
     1
102
RTVSPropertyOp31
 70
     1
102
RTVSPropertyOp32
 70
     1
  0
XRECORD
  5
297CF
102
{ACAD_REACTORS
330
297CE
102
}
330
297CE
100
AcDbXrecord
280
     1
102
RTVSPropertyOp0
 70
     1
102
RTVSPropertyOp1
 70
     1
102
RTVSPropertyOp2
 70
     1
102
RTVSPropertyOp3
 70
     1
102
RTVSPropertyOp4
 70
     1
102
RTVSPropertyOp5
 70
     1
102
RTVSPropertyOp6
 70
     1
102
RTVSPropertyOp7
 70
     1
102
RTVSPropertyOp8
 70
     1
102
RTVSPropertyOp9
 70
     1
102
RTVSPropertyOp10
 70
     1
102
RTVSPropertyOp11
 70
     1
102
RTVSPropertyOp12
 70
     1
102
RTVSPropertyOp13
 70
     1
102
RTVSPropertyOp14
 70
     1
102
RTVSPropertyOp15
 70
     1
102
RTVSPropertyOp16
 70
     1
102
RTVSPropertyOp17
 70
     1
102
RTVSPropertyOp18
 70
     1
102
RTVSPropertyOp19
 70
     1
102
RTVSPropertyOp20
 70
     1
102
RTVSPropertyOp21
 70
     1
102
RTVSPropertyOp22
 70
     1
102
RTVSPropertyOp23
 70
     1
102
RTVSPropertyOp24
 70
     1
102
RTVSPropertyOp25
 70
     1
102
RTVSPropertyOp26
 70
     1
102
RTVSPropertyOp27
 70
     1
102
RTVSPropertyOp28
 70
     1
102
RTVSPropertyOp29
 70
     1
102
RTVSPropertyOp30
 70
     1
102
RTVSPropertyOp31
 70
     1
102
RTVSPropertyOp32
 70
     1
  0
XRECORD
  5
297E5
102
{ACAD_REACTORS
330
297E4
102
}
330
297E4
100
AcDbXrecord
280
     1
102
RTVSPropertyOp0
 70
     1
102
RTVSPropertyOp1
 70
     1
102
RTVSPropertyOp2
 70
     1
102
RTVSPropertyOp3
 70
     1
102
RTVSPropertyOp4
 70
     1
102
RTVSPropertyOp5
 70
     1
102
RTVSPropertyOp6
 70
     1
102
RTVSPropertyOp7
 70
     1
102
RTVSPropertyOp8
 70
     1
102
RTVSPropertyOp9
 70
     1
102
RTVSPropertyOp10
 70
     1
102
RTVSPropertyOp11
 70
     1
102
RTVSPropertyOp12
 70
     1
102
RTVSPropertyOp13
 70
     1
102
RTVSPropertyOp14
 70
     1
102
RTVSPropertyOp15
 70
     1
102
RTVSPropertyOp16
 70
     1
102
RTVSPropertyOp17
 70
     1
102
RTVSPropertyOp18
 70
     1
102
RTVSPropertyOp19
 70
     1
102
RTVSPropertyOp20
 70
     1
102
RTVSPropertyOp21
 70
     1
102
RTVSPropertyOp22
 70
     1
102
RTVSPropertyOp23
 70
     1
102
RTVSPropertyOp24
 70
     1
102
RTVSPropertyOp25
 70
     1
102
RTVSPropertyOp26
 70
     1
102
RTVSPropertyOp27
 70
     1
102
RTVSPropertyOp28
 70
     1
102
RTVSPropertyOp29
 70
     1
102
RTVSPropertyOp30
 70
     1
102
RTVSPropertyOp31
 70
     1
102
RTVSPropertyOp32
 70
     1
  0
XRECORD
  5
297E3
102
{ACAD_REACTORS
330
297E2
102
}
330
297E2
100
AcDbXrecord
280
     1
102
RTVSPropertyOp0
 70
     1
102
RTVSPropertyOp1
 70
     1
102
RTVSPropertyOp2
 70
     1
102
RTVSPropertyOp3
 70
     1
102
RTVSPropertyOp4
 70
     1
102
RTVSPropertyOp5
 70
     1
102
RTVSPropertyOp6
 70
     1
102
RTVSPropertyOp7
 70
     1
102
RTVSPropertyOp8
 70
     1
102
RTVSPropertyOp9
 70
     1
102
RTVSPropertyOp10
 70
     1
102
RTVSPropertyOp11
 70
     1
102
RTVSPropertyOp12
 70
     1
102
RTVSPropertyOp13
 70
     1
102
RTVSPropertyOp14
 70
     1
102
RTVSPropertyOp15
 70
     1
102
RTVSPropertyOp16
 70
     1
102
RTVSPropertyOp17
 70
     1
102
RTVSPropertyOp18
 70
     1
102
RTVSPropertyOp19
 70
     1
102
RTVSPropertyOp20
 70
     1
102
RTVSPropertyOp21
 70
     1
102
RTVSPropertyOp22
 70
     1
102
RTVSPropertyOp23
 70
     1
102
RTVSPropertyOp24
 70
     1
102
RTVSPropertyOp25
 70
     1
102
RTVSPropertyOp26
 70
     1
102
RTVSPropertyOp27
 70
     1
102
RTVSPropertyOp28
 70
     1
102
RTVSPropertyOp29
 70
     1
102
RTVSPropertyOp30
 70
     1
102
RTVSPropertyOp31
 70
     1
102
RTVSPropertyOp32
 70
     1
  0
XRECORD
  5
297DD
102
{ACAD_REACTORS
330
297DC
102
}
330
297DC
100
AcDbXrecord
280
     1
102
RTVSPropertyOp0
 70
     1
102
RTVSPropertyOp1
 70
     1
102
RTVSPropertyOp2
 70
     1
102
RTVSPropertyOp3
 70
     1
102
RTVSPropertyOp4
 70
     1
102
RTVSPropertyOp5
 70
     1
102
RTVSPropertyOp6
 70
     1
102
RTVSPropertyOp7
 70
     1
102
RTVSPropertyOp8
 70
     1
102
RTVSPropertyOp9
 70
     1
102
RTVSPropertyOp10
 70
     1
102
RTVSPropertyOp11
 70
     1
102
RTVSPropertyOp12
 70
     1
102
RTVSPropertyOp13
 70
     1
102
RTVSPropertyOp14
 70
     1
102
RTVSPropertyOp15
 70
     1
102
RTVSPropertyOp16
 70
     1
102
RTVSPropertyOp17
 70
     1
102
RTVSPropertyOp18
 70
     1
102
RTVSPropertyOp19
 70
     1
102
RTVSPropertyOp20
 70
     1
102
RTVSPropertyOp21
 70
     1
102
RTVSPropertyOp22
 70
     1
102
RTVSPropertyOp23
 70
     1
102
RTVSPropertyOp24
 70
     1
102
RTVSPropertyOp25
 70
     1
102
RTVSPropertyOp26
 70
     1
102
RTVSPropertyOp27
 70
     1
102
RTVSPropertyOp28
 70
     1
102
RTVSPropertyOp29
 70
     1
102
RTVSPropertyOp30
 70
     1
102
RTVSPropertyOp31
 70
     1
102
RTVSPropertyOp32
 70
     1
  0
XRECORD
  5
297DF
102
{ACAD_REACTORS
330
297DE
102
}
330
297DE
100
AcDbXrecord
280
     1
102
RTVSPropertyOp0
 70
     1
102
RTVSPropertyOp1
 70
     1
102
RTVSPropertyOp2
 70
     1
102
RTVSPropertyOp3
 70
     1
102
RTVSPropertyOp4
 70
     1
102
RTVSPropertyOp5
 70
     1
102
RTVSPropertyOp6
 70
     1
102
RTVSPropertyOp7
 70
     1
102
RTVSPropertyOp8
 70
     1
102
RTVSPropertyOp9
 70
     1
102
RTVSPropertyOp10
 70
     1
102
RTVSPropertyOp11
 70
     1
102
RTVSPropertyOp12
 70
     1
102
RTVSPropertyOp13
 70
     1
102
RTVSPropertyOp14
 70
     1
102
RTVSPropertyOp15
 70
     1
102
RTVSPropertyOp16
 70
     1
102
RTVSPropertyOp17
 70
     1
102
RTVSPropertyOp18
 70
     1
102
RTVSPropertyOp19
 70
     1
102
RTVSPropertyOp20
 70
     1
102
RTVSPropertyOp21
 70
     1
102
RTVSPropertyOp22
 70
     1
102
RTVSPropertyOp23
 70
     1
102
RTVSPropertyOp24
 70
     1
102
RTVSPropertyOp25
 70
     1
102
RTVSPropertyOp26
 70
     1
102
RTVSPropertyOp27
 70
     1
102
RTVSPropertyOp28
 70
     1
102
RTVSPropertyOp29
 70
     1
102
RTVSPropertyOp30
 70
     1
102
RTVSPropertyOp31
 70
     1
102
RTVSPropertyOp32
 70
     1
  0
XRECORD
  5
297D5
102
{ACAD_REACTORS
330
297D4
102
}
330
297D4
100
AcDbXrecord
280
     1
102
RTVSPropertyOp0
 70
     1
102
RTVSPropertyOp1
 70
     1
102
RTVSPropertyOp2
 70
     1
102
RTVSPropertyOp3
 70
     1
102
RTVSPropertyOp4
 70
     1
102
RTVSPropertyOp5
 70
     1
102
RTVSPropertyOp6
 70
     1
102
RTVSPropertyOp7
 70
     1
102
RTVSPropertyOp8
 70
     1
102
RTVSPropertyOp9
 70
     1
102
RTVSPropertyOp10
 70
     1
102
RTVSPropertyOp11
 70
     1
102
RTVSPropertyOp12
 70
     1
102
RTVSPropertyOp13
 70
     1
102
RTVSPropertyOp14
 70
     1
102
RTVSPropertyOp15
 70
     1
102
RTVSPropertyOp16
 70
     1
102
RTVSPropertyOp17
 70
     1
102
RTVSPropertyOp18
 70
     1
102
RTVSPropertyOp19
 70
     1
102
RTVSPropertyOp20
 70
     1
102
RTVSPropertyOp21
 70
     1
102
RTVSPropertyOp22
 70
     1
102
RTVSPropertyOp23
 70
     1
102
RTVSPropertyOp24
 70
     1
102
RTVSPropertyOp25
 70
     1
102
RTVSPropertyOp26
 70
     1
102
RTVSPropertyOp27
 70
     1
102
RTVSPropertyOp28
 70
     1
102
RTVSPropertyOp29
 70
     1
102
RTVSPropertyOp30
 70
     1
102
RTVSPropertyOp31
 70
     1
102
RTVSPropertyOp32
 70
     1
  0
XRECORD
  5
297C9
102
{ACAD_REACTORS
330
297C8
102
}
330
297C8
100
AcDbXrecord
280
     1
102
RTVSPropertyOp0
 70
     1
102
RTVSPropertyOp1
 70
     1
102
RTVSPropertyOp2
 70
     1
102
RTVSPropertyOp3
 70
     1
102
RTVSPropertyOp4
 70
     1
102
RTVSPropertyOp5
 70
     1
102
RTVSPropertyOp6
 70
     1
102
RTVSPropertyOp7
 70
     1
102
RTVSPropertyOp8
 70
     1
102
RTVSPropertyOp9
 70
     1
102
RTVSPropertyOp10
 70
     1
102
RTVSPropertyOp11
 70
     1
102
RTVSPropertyOp12
 70
     1
102
RTVSPropertyOp13
 70
     1
102
RTVSPropertyOp14
 70
     1
102
RTVSPropertyOp15
 70
     1
102
RTVSPropertyOp16
 70
     1
102
RTVSPropertyOp17
 70
     1
102
RTVSPropertyOp18
 70
     1
102
RTVSPropertyOp19
 70
     1
102
RTVSPropertyOp20
 70
     1
102
RTVSPropertyOp21
 70
     1
102
RTVSPropertyOp22
 70
     1
102
RTVSPropertyOp23
 70
     1
102
RTVSPropertyOp24
 70
     1
102
RTVSPropertyOp25
 70
     1
102
RTVSPropertyOp26
 70
     1
102
RTVSPropertyOp27
 70
     1
102
RTVSPropertyOp28
 70
     1
102
RTVSPropertyOp29
 70
     1
102
RTVSPropertyOp30
 70
     1
102
RTVSPropertyOp31
 70
     1
102
RTVSPropertyOp32
 70
     1
  0
XRECORD
  5
297E1
102
{ACAD_REACTORS
330
297E0
102
}
330
297E0
100
AcDbXrecord
280
     1
102
RTVSPropertyOp0
 70
     1
102
RTVSPropertyOp1
 70
     1
102
RTVSPropertyOp2
 70
     1
102
RTVSPropertyOp3
 70
     1
102
RTVSPropertyOp4
 70
     1
102
RTVSPropertyOp5
 70
     1
102
RTVSPropertyOp6
 70
     1
102
RTVSPropertyOp7
 70
     1
102
RTVSPropertyOp8
 70
     1
102
RTVSPropertyOp9
 70
     1
102
RTVSPropertyOp10
 70
     1
102
RTVSPropertyOp11
 70
     1
102
RTVSPropertyOp12
 70
     1
102
RTVSPropertyOp13
 70
     1
102
RTVSPropertyOp14
 70
     1
102
RTVSPropertyOp15
 70
     1
102
RTVSPropertyOp16
 70
     1
102
RTVSPropertyOp17
 70
     1
102
RTVSPropertyOp18
 70
     1
102
RTVSPropertyOp19
 70
     1
102
RTVSPropertyOp20
 70
     1
102
RTVSPropertyOp21
 70
     1
102
RTVSPropertyOp22
 70
     1
102
RTVSPropertyOp23
 70
     1
102
RTVSPropertyOp24
 70
     1
102
RTVSPropertyOp25
 70
     1
102
RTVSPropertyOp26
 70
     1
102
RTVSPropertyOp27
 70
     1
102
RTVSPropertyOp28
 70
     1
102
RTVSPropertyOp29
 70
     1
102
RTVSPropertyOp30
 70
     1
102
RTVSPropertyOp31
 70
     1
102
RTVSPropertyOp32
 70
     1
  0
ENDSEC
  0
EOF
