  0
SECTION
  2
HEADER
  9
$ACADVER
  1
AC1015
  9
$ACADMAINTVER
 70
    20
  9
$DWGCODEPAGE
  3
ANSI_1252
  9
$INSBASE
 10
0.0
 20
0.0
 30
0.0
  9
$EXTMIN
 10
-1.367466688831981
 20
0.6272417204439887
 30
0.0
  9
$EXTMAX
 10
7.132533311168018
 20
11.62724172044399
 30
0.0
  9
$LIMMIN
 10
0.0
 20
0.0
  9
$LIMMAX
 10
8.612686574094858
 20
11.09400702403485
  9
$ORTHOMODE
 70
     1
  9
$REGENMODE
 70
     1
  9
$FILLMODE
 70
     1
  9
$QTEXTMODE
 70
     0
  9
$MIRRTEXT
 70
     1
  9
$LTSCALE
 40
1.0
  9
$ATTMODE
 70
     1
  9
$TEXTSIZE
 40
0.14
  9
$TRACEWID
 40
0.05
  9
$TEXTSTYLE
  7
SIMPLEX
  9
$CLAYER
  8
0
  9
$CELTYPE
  6
BYLAYER
  9
$CECOLOR
 62
   256
  9
$CELTSCALE
 40
1.0
  9
$DISPSILH
 70
     0
  9
$DIMSCALE
 40
0.0
  9
$DIMASZ
 40
0.18
  9
$DIMEXO
 40
0.0625
  9
$DIMDLI
 40
0.38
  9
$DIMRND
 40
0.0
  9
$DIMDLE
 40
0.0
  9
$DIMEXE
 40
0.08
  9
$DIMTP
 40
0.005
  9
$DIMTM
 40
0.005
  9
$DIMTXT
 40
0.18
  9
$DIMCEN
 40
0.0
  9
$DIMTSZ
 40
0.0
  9
$DIMTOL
 70
     0
  9
$DIMLIM
 70
     0
  9
$DIMTIH
 70
     1
  9
$DIMTOH
 70
     1
  9
$DIMSE1
 70
     0
  9
$DIMSE2
 70
     0
  9
$DIMTAD
 70
     0
  9
$DIMZIN
 70
     4
  9
$DIMBLK
  1

  9
$DIMASO
 70
     1
  9
$DIMSHO
 70
     1
  9
$DIMPOST
  1
\X
  9
$DIMAPOST
  1

  9
$DIMALT
 70
     1
  9
$DIMALTD
 70
     2
  9
$DIMALTF
 40
25.4
  9
$DIMLFAC
 40
1.0
  9
$DIMTOFL
 70
     0
  9
$DIMTVP
 40
0.0
  9
$DIMTIX
 70
     1
  9
$DIMSOXD
 70
     0
  9
$DIMSAH
 70
     0
  9
$DIMBLK1
  1

  9
$DIMBLK2
  1

  9
$DIMSTYLE
  2
3 plc dim
  9
$DIMCLRD
 70
   256
  9
$DIMCLRE
 70
   256
  9
$DIMCLRT
 70
   256
  9
$DIMTFAC
 40
1.0
  9
$DIMGAP
 40
0.09
  9
$DIMJUST
 70
     0
  9
$DIMSD1
 70
     0
  9
$DIMSD2
 70
     0
  9
$DIMTOLJ
 70
     1
  9
$DIMTZIN
 70
     0
  9
$DIMALTZ
 70
     0
  9
$DIMALTTZ
 70
     0
  9
$DIMUPT
 70
     0
  9
$DIMDEC
 70
     3
  9
$DIMTDEC
 70
     3
  9
$DIMALTU
 70
     2
  9
$DIMALTTD
 70
     2
  9
$DIMTXSTY
  7
SIMPLEX
  9
$DIMAUNIT
 70
     0
  9
$DIMADEC
 70
     0
  9
$DIMALTRND
 40
0.0
  9
$DIMAZIN
 70
     1
  9
$DIMDSEP
 70
    46
  9
$DIMATFIT
 70
     3
  9
$DIMFRAC
 70
     0
  9
$DIMLDRBLK
  1

  9
$DIMLUNIT
 70
     3
  9
$DIMLWD
 70
    -2
  9
$DIMLWE
 70
    -2
  9
$DIMTMOVE
 70
     0
  9
$LUNITS
 70
     2
  9
$LUPREC
 70
     4
  9
$SKETCHINC
 40
0.1
  9
$FILLETRAD
 40
0.1
  9
$AUNITS
 70
     0
  9
$AUPREC
 70
     0
  9
$MENU
  1
acad
  9
$ELEVATION
 40
0.0
  9
$PELEVATION
 40
0.0
  9
$THICKNESS
 40
0.0
  9
$LIMCHECK
 70
     0
  9
$CHAMFERA
 40
0.08
  9
$CHAMFERB
 40
0.08
  9
$CHAMFERC
 40
0.0
  9
$CHAMFERD
 40
0.0
  9
$SKPOLY
 70
     0
  9
$TDCREATE
 40
2449371.572584838
  9
$TDUCREATE
 40
2449371.905918171
  9
$TDUPDATE
 40
2455873.620265267
  9
$TDUUPDATE
 40
2455873.953598600
  9
$TDINDWG
 40
2.8363093056
  9
$TDUSRTIMER
 40
2.8363093056
  9
$USRTIMER
 70
     1
  9
$ANGBASE
 50
0.0
  9
$ANGDIR
 70
     0
  9
$PDMODE
 70
     0
  9
$PDSIZE
 40
0.0
  9
$PLINEWID
 40
0.025
  9
$SPLFRAME
 70
     0
  9
$SPLINETYPE
 70
     6
  9
$SPLINESEGS
 70
     8
  9
$HANDSEED
  5
29AFB
  9
$SURFTAB1
 70
     6
  9
$SURFTAB2
 70
     6
  9
$SURFTYPE
 70
     6
  9
$SURFU
 70
     6
  9
$SURFV
 70
     6
  9
$UCSBASE
  2

  9
$UCSNAME
  2

  9
$UCSORG
 10
0.0
 20
0.0
 30
0.0
  9
$UCSXDIR
 10
1.0
 20
0.0
 30
0.0
  9
$UCSYDIR
 10
0.0
 20
1.0
 30
0.0
  9
$UCSORTHOREF
  2

  9
$UCSORTHOVIEW
 70
     0
  9
$UCSORGTOP
 10
0.0
 20
0.0
 30
0.0
  9
$UCSORGBOTTOM
 10
0.0
 20
0.0
 30
0.0
  9
$UCSORGLEFT
 10
0.0
 20
0.0
 30
0.0
  9
$UCSORGRIGHT
 10
0.0
 20
0.0
 30
0.0
  9
$UCSORGFRONT
 10
0.0
 20
0.0
 30
0.0
  9
$UCSORGBACK
 10
0.0
 20
0.0
 30
0.0
  9
$PUCSBASE
  2

  9
$PUCSNAME
  2

  9
$PUCSORG
 10
0.0
 20
0.0
 30
0.0
  9
$PUCSXDIR
 10
1.0
 20
0.0
 30
0.0
  9
$PUCSYDIR
 10
0.0
 20
1.0
 30
0.0
  9
$PUCSORTHOREF
  2

  9
$PUCSORTHOVIEW
 70
     0
  9
$PUCSORGTOP
 10
0.0
 20
0.0
 30
0.0
  9
$PUCSORGBOTTOM
 10
0.0
 20
0.0
 30
0.0
  9
$PUCSORGLEFT
 10
0.0
 20
0.0
 30
0.0
  9
$PUCSORGRIGHT
 10
0.0
 20
0.0
 30
0.0
  9
$PUCSORGFRONT
 10
0.0
 20
0.0
 30
0.0
  9
$PUCSORGBACK
 10
0.0
 20
0.0
 30
0.0
  9
$USERI1
 70
     0
  9
$USERI2
 70
     0
  9
$USERI3
 70
     0
  9
$USERI4
 70
     0
  9
$USERI5
 70
     0
  9
$USERR1
 40
0.0
  9
$USERR2
 40
0.0
  9
$USERR3
 40
0.0
  9
$USERR4
 40
0.0
  9
$USERR5
 40
0.0
  9
$WORLDVIEW
 70
     1
  9
$SHADEDGE
 70
     3
  9
$SHADEDIF
 70
    70
  9
$TILEMODE
 70
     1
  9
$MAXACTVP
 70
    16
  9
$PINSBASE
 10
0.0
 20
0.0
 30
0.0
  9
$PLIMCHECK
 70
     0
  9
$PEXTMIN
 10
1.000000000000000E+20
 20
1.000000000000000E+20
 30
1.000000000000000E+20
  9
$PEXTMAX
 10
-1.000000000000000E+20
 20
-1.000000000000000E+20
 30
-1.000000000000000E+20
  9
$PLIMMIN
 10
0.0
 20
0.0
  9
$PLIMMAX
 10
12.0
 20
9.0
  9
$UNITMODE
 70
     0
  9
$VISRETAIN
 70
     0
  9
$PLINEGEN
 70
     0
  9
$PSLTSCALE
 70
     1
  9
$TREEDEPTH
 70
  3020
  9
$CMLSTYLE
  2
STANDARD
  9
$CMLJUST
 70
     0
  9
$CMLSCALE
 40
1.0
  9
$PROXYGRAPHICS
 70
     1
  9
$MEASUREMENT
 70
     0
  9
$CELWEIGHT
370
    -1
  9
$ENDCAPS
280
     0
  9
$JOINSTYLE
280
     0
  9
$LWDISPLAY
290
     0
  9
$INSUNITS
 70
     0
  9
$HYPERLINKBASE
  1

  9
$STYLESHEET
  1
monochrome.ctb
  9
$XEDIT
290
     1
  9
$CEPSNTYPE
380
     0
  9
$PSTYLEMODE
290
     1
  9
$FINGERPRINTGUID
  2
{F09D44C5-AD4A-11D3-B8FE-009027244A7B}
  9
$VERSIONGUID
  2
{5E5E4C0C-454B-4DFB-8DC8-F252CDC91230}
  9
$EXTNAMES
290
     1
  9
$PSVPSCALE
 40
0.0
  9
$OLESTARTUP
290
     0
  0
ENDSEC
  0
SECTION
  2
CLASSES
  0
CLASS
  1
DICTIONARYVAR
  2
AcDbDictionaryVar
  3
ObjectDBX Classes
 90
        0
280
     0
281
     0
  0
CLASS
  1
ACDBDICTIONARYWDFLT
  2
AcDbDictionaryWithDefault
  3
ObjectDBX Classes
 90
        0
280
     0
281
     0
  0
CLASS
  1
ACDBPLACEHOLDER
  2
AcDbPlaceHolder
  3
ObjectDBX Classes
 90
        0
280
     0
281
     0
  0
CLASS
  1
LAYOUT
  2
AcDbLayout
  3
ObjectDBX Classes
 90
        0
280
     0
281
     0
  0
CLASS
  1
MATERIAL
  2
AcDbMaterial
  3
ObjectDBX Classes
 90
     1153
280
     0
281
     0
  0
CLASS
  1
VISUALSTYLE
  2
AcDbVisualStyle
  3
ObjectDBX Classes
 90
     4095
280
     0
281
     0
  0
CLASS
  1
TABLESTYLE
  2
AcDbTableStyle
  3
ObjectDBX Classes
 90
     4095
280
     0
281
     0
  0
CLASS
  1
SCALE
  2
AcDbScale
  3
ObjectDBX Classes
 90
     1153
280
     0
281
     0
  0
CLASS
  1
MLEADERSTYLE
  2
AcDbMLeaderStyle
  3
ACDB_MLEADERSTYLE_CLASS
 90
     4095
280
     0
281
     0
  0
CLASS
  1
CELLSTYLEMAP
  2
AcDbCellStyleMap
  3
ObjectDBX Classes
 90
     1152
280
     0
281
     0
  0
ENDSEC
  0
SECTION
  2
TABLES
  0
TABLE
  2
VPORT
  5
8
330
0
100
AcDbSymbolTable
 70
     1
  0
VPORT
  5
29A61
330
8
100
AcDbSymbolTableRecord
100
AcDbViewportTableRecord
  2
*Active
 70
     0
 10
0.0
 20
0.0
 11
1.0
 21
1.0
 12
5.61939441056837
 22
6.293825521832424
 13
0.0
 23
0.0
 14
0.5
 24
0.5
 15
0.5
 25
0.5
 16
0.0
 26
0.0
 36
1.0
 17
0.0
 27
0.0
 37
0.0
 40
18.72761333828703
 41
1.702300405953991
 42
50.0
 43
0.0
 44
0.0
 50
0.0
 51
0.0
 71
     0
 72
   100
 73
     1
 74
     0
 75
     0
 76
     0
 77
     0
 78
     0
281
     0
 65
     1
110
0.0
120
0.0
130
0.0
111
1.0
121
0.0
131
0.0
112
0.0
122
1.0
132
0.0
 79
     0
146
0.0
1001
ACAD_NAV_VCDISPLAY
1070
     3
  0
ENDTAB
  0
TABLE
  2
LTYPE
  5
5
330
0
100
AcDbSymbolTable
 70
     3
  0
LTYPE
  5
12
330
5
100
AcDbSymbolTableRecord
100
AcDbLinetypeTableRecord
  2
BYBLOCK
 70
     0
  3

 72
    65
 73
     0
 40
0.0
  0
LTYPE
  5
13
330
5
100
AcDbSymbolTableRecord
100
AcDbLinetypeTableRecord
  2
BYLAYER
 70
     0
  3

 72
    65
 73
     0
 40
0.0
  0
LTYPE
  5
14
330
5
100
AcDbSymbolTableRecord
100
AcDbLinetypeTableRecord
  2
CONTINUOUS
 70
     0
  3
Solid line
 72
    65
 73
     0
 40
0.0
  0
LTYPE
  5
167A3
330
5
100
AcDbSymbolTableRecord
100
AcDbLinetypeTableRecord
  2
HIDDEN2
 70
     0
  3
_ _ _ _ _ _ _ _ _ _ _ _ _ _ _ _ _ _ _ _ _ _ _ _
 72
    65
 73
     2
 40
0.1875
 49
0.125
 74
     0
 49
-0.0625
 74
     0
  0
LTYPE
  5
29065
330
5
100
AcDbSymbolTableRecord
100
AcDbLinetypeTableRecord
  2
ACAD_ISO07W100
 70
     0
  3
ISO dot . . . . . . . . . . . . . . . . . . . .
 72
    65
 73
     2
 40
3.0
 49
0.0
 74
     0
 49
-3.0
 74
     0
  0
ENDTAB
  0
TABLE
  2
LAYER
  5
2
102
{ACAD_XDICTIONARY
360
29062
102
}
330
0
100
AcDbSymbolTable
 70
     5
  0
LAYER
  5
F
330
2
100
AcDbSymbolTableRecord
100
AcDbLayerTableRecord
  2
0
 70
     0
 62
     7
  6
CONTINUOUS
370
    -3
390
165D0
  0
LAYER
  5
C9
330
2
100
AcDbSymbolTableRecord
100
AcDbLayerTableRecord
  2
TITLE
 70
     0
 62
     5
  6
CONTINUOUS
290
     0
370
    18
390
165D0
  0
LAYER
  5
139D3
330
2
100
AcDbSymbolTableRecord
100
AcDbLayerTableRecord
  2
DEFPOINTS
 70
     0
 62
     7
  6
CONTINUOUS
290
     0
370
    -3
390
165D0
  0
LAYER
  5
167A5
330
2
100
AcDbSymbolTableRecord
100
AcDbLayerTableRecord
  2
DIMENSION
 70
     0
 62
     3
  6
CONTINUOUS
370
    13
390
165D0
  0
LAYER
  5
167A9
330
2
100
AcDbSymbolTableRecord
100
AcDbLayerTableRecord
  2
HIDDEN
 70
     0
 62
     5
  6
HIDDEN2
370
    18
390
165D0
  0
ENDTAB
  0
TABLE
  2
STYLE
  5
3
330
0
100
AcDbSymbolTable
 70
     4
  0
STYLE
  5
10
330
3
100
AcDbSymbolTableRecord
100
AcDbTextStyleTableRecord
  2
STANDARD
 70
     0
 40
0.0
 41
1.0
 50
0.0
 71
     0
 42
0.2
  3
txt
  4

  0
STYLE
  5
AB
330
3
100
AcDbSymbolTableRecord
100
AcDbTextStyleTableRecord
  2
SIMPLEX
 70
     0
 40
0.0
 41
1.0
 50
0.0
 71
     0
 42
0.14
  3
simplex.shx
  4

  0
STYLE
  5
29066
330
3
100
AcDbSymbolTableRecord
100
AcDbTextStyleTableRecord
  2
ROMANS
 70
     0
 40
0.0
 41
1.0
 50
0.0
 71
     0
 42
0.15
  3
romans
  4

  0
STYLE
  5
29067
330
3
100
AcDbSymbolTableRecord
100
AcDbTextStyleTableRecord
  2
ROMANT
 70
     0
 40
0.0
 41
1.0
 50
0.0
 71
     0
 42
0.14
  3
romant.shx
  4

  0
ENDTAB
  0
TABLE
  2
VIEW
  5
6
330
0
100
AcDbSymbolTable
 70
     0
  0
ENDTAB
  0
TABLE
  2
UCS
  5
7
330
0
100
AcDbSymbolTable
 70
     0
  0
ENDTAB
  0
TABLE
  2
APPID
  5
9
330
0
100
AcDbSymbolTable
 70
     7
  0
APPID
  5
11
330
9
100
AcDbSymbolTableRecord
100
AcDbRegAppTableRecord
  2
ACAD
 70
     0
  0
APPID
  5
13447
330
9
100
AcDbSymbolTableRecord
100
AcDbRegAppTableRecord
  2
CONTENTBLOCKICON
 70
     0
  0
APPID
  5
138DE
330
9
100
AcDbSymbolTableRecord
100
AcDbRegAppTableRecord
  2
CONTENTTABDATA
 70
     0
  0
APPID
  5
138DF
330
9
100
AcDbSymbolTableRecord
100
AcDbRegAppTableRecord
  2
CONTENTCURRENTTAB
 70
     0
  0
APPID
  5
138E1
330
9
100
AcDbSymbolTableRecord
100
AcDbRegAppTableRecord
  2
CONTENTBLOCKDESCRIPTION
 70
     0
  0
APPID
  5
29ABB
330
9
100
AcDbSymbolTableRecord
100
AcDbRegAppTableRecord
  2
ACAD_NAV_VCDISPLAY
 70
     0
  0
APPID
  5
29AFA
330
9
100
AcDbSymbolTableRecord
100
AcDbRegAppTableRecord
  2
ACAD_MLEADERVER
 70
     0
  0
ENDTAB
  0
TABLE
  2
DIMSTYLE
  5
A
330
0
100
AcDbSymbolTable
 70
     2
100
AcDbDimStyleTable
 71
     2
340
165EE
340
901
  0
DIMSTYLE
105
901
330
A
100
AcDbSymbolTableRecord
100
AcDbDimStyleTableRecord
  2
STANDARD
 70
     0
340
10
  0
DIMSTYLE
105
165EE
330
A
100
AcDbSymbolTableRecord
100
AcDbDimStyleTableRecord
  2
3 plc dim
 70
     0
 40
0.0
 45
0.01
 47
0.005
 48
0.005
141
-0.05
174
     1
176
   256
177
   256
178
   256
271
     3
272
     3
340
AB
  0
ENDTAB
  0
TABLE
  2
BLOCK_RECORD
  5
1
330
0
100
AcDbSymbolTable
 70
     2
  0
BLOCK_RECORD
  5
18
330
1
100
AcDbSymbolTableRecord
100
AcDbBlockTableRecord
  2
*MODEL_SPACE
340
165D3
  0
BLOCK_RECORD
  5
15
330
1
100
AcDbSymbolTableRecord
100
AcDbBlockTableRecord
  2
*PAPER_SPACE
340
165D4
  0
ENDTAB
  0
ENDSEC
  0
SECTION
  2
BLOCKS
  0
BLOCK
  5
D2
330
18
100
AcDbEntity
  8
0
100
AcDbBlockBegin
  2
*MODEL_SPACE
 70
     0
 10
0.0
 20
0.0
 30
0.0
  3
*MODEL_SPACE
  1

  0
ENDBLK
  5
D3
330
18
100
AcDbEntity
  8
0
100
AcDbBlockEnd
  0
BLOCK
  5
D0
330
15
100
AcDbEntity
 67
     1
  8
0
100
AcDbBlockBegin
  2
*PAPER_SPACE
 70
     0
 10
0.0
 20
0.0
 30
0.0
  3
*PAPER_SPACE
  1

  0
ENDBLK
  5
D1
330
15
100
AcDbEntity
 67
     1
  8
0
100
AcDbBlockEnd
  0
ENDSEC
  0
SECTION
  2
ENTITIES
  0
MTEXT
  5
18500
330
18
100
AcDbEntity
  8
DIMENSION
100
AcDbMText
 10
56.84959916162816
 20
7.915833144220382
 30
0.0
 40
0.25
 41
0.0
 71
     1
 72
     1
  1

  7
SIMPLEX
 73
     1
 44
1.0
1001
ACAD
1000
MTEXTBEGIN
1070
    73
1070
     1
1070
    44
1040
1.0
1070
    74
1070
     0
1000
MTEXTEND
  0
MTEXT
  5
18508
330
18
100
AcDbEntity
  8
DIMENSION
100
AcDbMText
 10
50.57431035973983
 20
7.329449959165447
 30
0.0
 40
0.25
 41
0.0
 71
     9
 72
     1
  1

  7
SIMPLEX
 73
     1
 44
1.0
1001
ACAD
1000
MTEXTBEGIN
1070
    73
1070
     1
1070
    44
1040
1.0
1070
    74
1070
     0
1000
MTEXTEND
  0
MTEXT
  5
18539
330
18
100
AcDbEntity
  8
DIMENSION
100
AcDbMText
 10
56.99508823148164
 20
13.49829507367549
 30
0.0
 40
0.25
 41
0.0
 71
     1
 72
     1
  1

  7
SIMPLEX
 73
     1
 44
1.0
1001
ACAD
1000
MTEXTBEGIN
1070
    73
1070
     1
1070
    44
1040
1.0
1070
    74
1070
     0
1000
MTEXTEND
  0
MTEXT
  5
1854B
330
18
100
AcDbEntity
  8
DIMENSION
100
AcDbMText
 10
50.35929819352999
 20
13.45479790225773
 30
0.0
 40
0.25
 41
0.0
 71
     9
 72
     1
  1

  7
SIMPLEX
 73
     1
 44
1.0
1001
ACAD
1000
MTEXTBEGIN
1070
    73
1070
     1
1070
    44
1040
1.0
1070
    74
1070
     0
1000
MTEXTEND
  0
MTEXT
  5
1854D
330
18
100
AcDbEntity
  8
DIMENSION
100
AcDbMText
 10
50.37220589195107
 20
13.78371825835966
 30
0.0
 40
0.25
 41
0.0
 71
     9
 72
     1
  1

  7
SIMPLEX
 73
     1
 44
1.0
1001
ACAD
1000
MTEXTBEGIN
1070
    73
1070
     1
1070
    44
1040
1.0
1070
    74
1070
     0
1000
MTEXTEND
  0
MTEXT
  5
1855E
330
18
100
AcDbEntity
  8
DIMENSION
100
AcDbMText
 10
52.3162937380203
 20
16.45639987289734
 30
0.0
 40
0.25
 41
0.0
 71
     1
 72
     1
  1

  7
SIMPLEX
 73
     1
 44
1.0
1001
ACAD
1000
MTEXTBEGIN
1070
    73
1070
     1
1070
    44
1040
1.0
1070
    74
1070
     0
1000
MTEXTEND
  0
MTEXT
  5
18D06
330
18
100
AcDbEntity
  8
DIMENSION
100
AcDbMText
 10
15.33543021575659
 20
27.33884838928724
 30
0.0
 40
0.25
 41
0.0
 71
     9
 72
     1
  1

  7
SIMPLEX
 73
     1
 44
1.0
1001
ACAD
1000
MTEXTBEGIN
1070
    73
1070
     1
1070
    44
1040
1.0
1070
    74
1070
     0
1000
MTEXTEND
  0
MTEXT
  5
18DBF
330
18
100
AcDbEntity
  8
DIMENSION
100
AcDbMText
 10
14.52067685660489
 20
23.4884392103478
 30
0.0
 40
0.25
 41
0.0
 71
     1
 72
     1
  1

  7
SIMPLEX
 73
     1
 44
1.0
1001
ACAD
1000
MTEXTBEGIN
1070
    73
1070
     1
1070
    44
1040
1.0
1070
    74
1070
     0
1000
MTEXTEND
  0
MTEXT
  5
18F35
330
18
100
AcDbEntity
  8
HIDDEN
370
     9
100
AcDbMText
 10
20.36697498394904
 20
38.25613068020407
 30
0.0
 40
0.25
 41
0.0
 71
     1
 72
     1
  1

  7
SIMPLEX
 73
     1
 44
1.0
1001
ACAD
1000
MTEXTBEGIN
1070
    73
1070
     1
1070
    44
1040
1.0
1070
    74
1070
     0
1000
MTEXTEND
  0
MTEXT
  5
197A2
330
18
100
AcDbEntity
  8
HIDDEN
370
     9
100
AcDbMText
 10
50.42644761080665
 20
39.23020268761083
 30
0.0
 40
0.25
 41
0.0
 71
     9
 72
     1
  1

  7
SIMPLEX
 73
     1
 44
1.0
1001
ACAD
1000
MTEXTBEGIN
1070
    73
1070
     1
1070
    44
1040
1.0
1070
    74
1070
     0
1000
MTEXTEND
  0
MTEXT
  5
197A7
330
18
100
AcDbEntity
  8
HIDDEN
370
     9
100
AcDbMText
 10
52.13407327448077
 20
35.92601391536574
 30
0.0
 40
0.25
 41
0.0
 71
     1
 72
     1
  1

  7
SIMPLEX
 73
     1
 44
1.0
1001
ACAD
1000
MTEXTBEGIN
1070
    73
1070
     1
1070
    44
1040
1.0
1070
    74
1070
     0
1000
MTEXTEND
  0
MTEXT
  5
1984A
330
18
100
AcDbEntity
  8
DIMENSION
100
AcDbMText
 10
47.69073126280193
 20
34.64731676005309
 30
0.0
 40
0.25
 41
0.0
 71
     1
 72
     1
  1

  7
SIMPLEX
 73
     1
 44
1.0
1001
ACAD
1000
MTEXTBEGIN
1070
    73
1070
     1
1070
    44
1040
1.0
1070
    74
1070
     0
1000
MTEXTEND
  0
MTEXT
  5
198EC
330
18
100
AcDbEntity
  8
DIMENSION
100
AcDbMText
 10
50.24651058710002
 20
32.50242814199161
 30
0.0
 40
0.25
 41
0.0
 71
     9
 72
     1
  1

  7
SIMPLEX
 73
     1
 44
1.0
1001
ACAD
1000
MTEXTBEGIN
1070
    73
1070
     1
1070
    44
1040
1.0
1070
    74
1070
     0
1000
MTEXTEND
  0
MTEXT
  5
1993A
330
18
100
AcDbEntity
  8
DIMENSION
100
AcDbMText
 10
58.02115694389015
 20
38.57903108478078
 30
0.0
 40
0.25
 41
0.0
 71
     1
 72
     1
  1

  7
SIMPLEX
 73
     1
 44
1.0
1001
ACAD
1000
MTEXTBEGIN
1070
    73
1070
     1
1070
    44
1040
1.0
1070
    74
1070
     0
1000
MTEXTEND
  0
MTEXT
  5
19971
330
18
100
AcDbEntity
  8
DIMENSION
100
AcDbMText
 10
52.74047200405972
 20
34.9191000862525
 30
0.0
 40
0.25
 41
0.0
 71
     1
 72
     1
  1

  7
SIMPLEX
 73
     1
 44
1.0
1001
ACAD
1000
MTEXTBEGIN
1070
    73
1070
     1
1070
    44
1040
1.0
1070
    74
1070
     0
1000
MTEXTEND
  0
MTEXT
  5
1C20E
330
18
100
AcDbEntity
  8
DIMENSION
100
AcDbMText
 10
45.25728739213408
 20
18.30197528865155
 30
0.0
 40
0.14
 41
0.0
 71
     1
 72
     1
  1

  7
SIMPLEX
 73
     1
 44
1.0
1001
ACAD
1000
MTEXTBEGIN
1070
    73
1070
     1
1070
    44
1040
1.0
1070
    74
1070
     0
1000
MTEXTEND
  0
MTEXT
  5
1C76F
330
18
100
AcDbEntity
  8
DIMENSION
100
AcDbMText
 10
29.56582892685009
 20
31.4039200434291
 30
0.0
 40
0.14
 41
0.0
 71
     1
 72
     1
  1

  7
SIMPLEX
 73
     1
 44
1.0
1001
ACAD
1000
MTEXTBEGIN
1070
    73
1070
     1
1070
    44
1040
1.0
1070
    74
1070
     0
1000
MTEXTEND
  0
MTEXT
  5
1D5DB
330
18
100
AcDbEntity
  8
DIMENSION
100
AcDbMText
 10
8.946021644105641
 20
14.97341101121118
 30
0.0
 40
0.14
 41
0.0
 71
     9
 72
     1
  1

  7
SIMPLEX
 73
     1
 44
1.0
1001
ACAD
1000
MTEXTBEGIN
1070
    73
1070
     1
1070
    44
1040
1.0
1070
    74
1070
     0
1000
MTEXTEND
  0
MTEXT
  5
1D618
330
18
100
AcDbEntity
  8
DIMENSION
100
AcDbMText
 10
9.002511196056623
 20
15.18331188632932
 30
0.0
 40
0.14
 41
0.0
 71
     9
 72
     1
  1

  7
SIMPLEX
 73
     1
 44
1.0
1001
ACAD
1000
MTEXTBEGIN
1070
    73
1070
     1
1070
    44
1040
1.0
1070
    74
1070
     0
1000
MTEXTEND
  0
MTEXT
  5
1D61E
330
18
100
AcDbEntity
  8
DIMENSION
100
AcDbMText
 10
9.002511196056623
 20
15.18331188632932
 30
0.0
 40
0.14
 41
0.0
 71
     9
 72
     1
  1

  7
SIMPLEX
 73
     1
 44
1.0
1001
ACAD
1000
MTEXTBEGIN
1070
    73
1070
     1
1070
    44
1040
1.0
1070
    74
1070
     0
1000
MTEXTEND
  0
MTEXT
  5
1E3BB
330
18
100
AcDbEntity
  8
DIMENSION
100
AcDbMText
 10
43.23136811447755
 20
13.2986715582167
 30
0.0
 40
0.14
 41
0.0
 71
     9
 72
     1
  1

  7
SIMPLEX
 73
     1
 44
1.0
1001
ACAD
1000
MTEXTBEGIN
1070
    73
1070
     1
1070
    44
1040
1.0
1070
    74
1070
     0
1000
MTEXTEND
  0
MTEXT
  5
1E460
330
18
100
AcDbEntity
  8
DIMENSION
100
AcDbMText
 10
49.58027084590124
 20
17.80483580664516
 30
0.0
 40
0.14
 41
0.0
 71
     1
 72
     1
  1

  7
SIMPLEX
 73
     1
 44
1.0
1001
ACAD
1000
MTEXTBEGIN
1070
    73
1070
     1
1070
    44
1040
1.0
1070
    74
1070
     0
1000
MTEXTEND
  0
MTEXT
  5
1F6D6
330
18
100
AcDbEntity
  8
DIMENSION
100
AcDbMText
 10
46.72784334858294
 20
30.29707759325918
 30
0.0
 40
0.128630329335528
 41
0.0
 71
     9
 72
     1
  1

  7
SIMPLEX
 73
     1
 44
1.0
1001
ACAD
1000
MTEXTBEGIN
1070
    73
1070
     1
1070
    44
1040
1.0
1070
    74
1070
     0
1000
MTEXTEND
  0
MTEXT
  5
20C2F
330
18
100
AcDbEntity
  8
DIMENSION
100
AcDbMText
 10
-21.27215663754641
 20
30.29707759025417
 30
0.0
 40
0.128630329335528
 41
0.0
 71
     9
 72
     1
  1

  7
SIMPLEX
 73
     1
 44
1.0
1001
ACAD
1000
MTEXTBEGIN
1070
    73
1070
     1
1070
    44
1040
1.0
1070
    74
1070
     0
1000
MTEXTEND
  0
MTEXT
  5
21C05
330
18
100
AcDbEntity
  8
DIMENSION
100
AcDbMText
 10
66.93567503676689
 20
55.41745640404148
 30
0.0
 40
0.128630329335528
 41
0.0
 71
     9
 72
     1
  1

  7
SIMPLEX
 73
     1
 44
1.0
1001
ACAD
1000
MTEXTBEGIN
1070
    73
1070
     1
1070
    44
1040
1.0
1070
    74
1070
     0
1000
MTEXTEND
  0
MTEXT
  5
21C66
330
18
100
AcDbEntity
  8
DIMENSION
100
AcDbMText
 10
63.55680539578292
 20
58.84886331017053
 30
0.0
 40
0.25
 41
0.22
 71
     9
 72
     1
  1

  7
SIMPLEX
 73
     1
 44
1.0
1001
ACAD
1000
MTEXTBEGIN
1070
    73
1070
     1
1070
    44
1040
1.0
1070
    74
1070
     0
1000
MTEXTEND
  0
MTEXT
  5
27E0F
330
18
100
AcDbEntity
  8
DIMENSION
100
AcDbMText
 10
16.20230097671705
 20
16.43285535504027
 30
0.0
 40
0.14
 41
0.0
 71
     1
 72
     1
  1

  7
SIMPLEX
 73
     1
 44
1.0
1001
ACAD
1000
MTEXTBEGIN
1070
    73
1070
     1
1070
    44
1040
1.0
1070
    74
1070
     0
1000
MTEXTEND
  0
LINE
  5
294AB
330
18
100
AcDbEntity
  8
0
370
    15
100
AcDbLine
 10
5.94753331116799
 20
10.40856216259506
 30
0.0
 11
5.947533311168019
 21
1.845921278292927
 31
0.0
  0
LINE
  5
294AC
330
18
100
AcDbEntity
  8
0
370
    15
100
AcDbLine
 10
-0.1824666888319823
 20
1.845921278292955
 30
0.0
 11
-0.1824666888320108
 21
10.40856216259506
 31
0.0
  0
LINE
  5
294B4
330
18
100
AcDbEntity
  8
0
370
    15
100
AcDbLine
 10
5.447533311168025
 20
10.90856216259505
 30
0.0
 11
0.3175333111679893
 21
10.90856216259506
 31
0.0
  0
ARC
  5
294B5
330
18
100
AcDbEntity
  8
0
370
    15
100
AcDbCircle
 10
0.3175333111679892
 20
10.40856216259506
 30
0.0
 40
0.5
100
AcDbArc
 50
89.99999999999998
 51
180.0
  0
ARC
  5
294D4
330
18
100
AcDbEntity
  8
0
370
    15
100
AcDbCircle
 10
5.44753331116799
 20
10.40856216259506
 30
0.0
 40
0.5
100
AcDbArc
 50
0.0
 51
89.99999999999998
  0
LINE
  5
294E2
330
18
100
AcDbEntity
  8
0
370
    15
100
AcDbLine
 10
5.447533311168019
 20
1.345921278292927
 30
0.0
 11
0.3175333111680175
 21
1.345921278292955
 31
0.0
  0
ARC
  5
294F1
330
18
100
AcDbEntity
  8
0
370
    15
100
AcDbCircle
 10
0.3175333111680176
 20
1.845921278292955
 30
0.0
 40
0.5
100
AcDbArc
 50
180.0
 51
270.0
  0
ARC
  5
2950B
330
18
100
AcDbEntity
  8
0
370
    15
100
AcDbCircle
 10
5.447533311168019
 20
1.845921278292927
 30
0.0
 40
0.5
100
AcDbArc
 50
270.0
 51
0.0
  0
SOLID
  5
296AC
330
18
100
AcDbEntity
  8
0
100
AcDbTrace
 10
-0.0374666888319935
 20
6.157241720443988
 30
0.0
 11
-0.0374666888319935
 21
6.09724172044399
 31
0.0
 12
-0.1824666888319966
 22
6.127241720444007
 32
0.0
 13
-0.1824666888319966
 23
6.127241720444007
 33
0.0
  0
SOLID
  5
296AD
330
18
100
AcDbEntity
  8
0
100
AcDbTrace
 10
5.802533311168023
 20
6.157241720443988
 30
0.0
 11
5.802533311168023
 21
6.09724172044399
 31
0.0
 12
5.947533311168005
 22
6.127241720443985
 32
0.0
 13
5.947533311168005
 23
6.127241720443985
 33
0.0
  0
MTEXT
  5
296AE
330
18
100
AcDbEntity
  8
0
100
AcDbMText
 10
1.306882182293037
 20
6.156242176652861
 30
0.0
 40
0.096
 41
2.513999999999999
 71
     2
 72
     5
  1
{\fArial Narrow|b1|i0|c0|p34;VERIFY ALL DIMENSIONS\PTO ENSURE THAT THIS\PPRINT IS 1 TO 1 SCALE.}
  7
ROMANT
 11
0.0000000000000001
 21
1.0
 31
0.0
 73
     1
 44
1.0
1001
ACAD
1000
MTEXTBEGIN
1070
    73
1070
     1
1070
    44
1040
1.0
1070
    74
1070
     0
1000
MTEXTEND
  0
LINE
  5
296AF
330
18
100
AcDbEntity
  8
0
100
AcDbLine
 10
2.882533311168018
 20
4.471300035235223
 30
0.0
 11
2.882533311168018
 21
9.205736908968873
 31
0.0
  0
MTEXT
  5
296B0
330
18
100
AcDbEntity
  8
0
100
AcDbMText
 10
4.231810552204862
 20
6.110062419557898
 30
0.0
 40
0.14
 41
0.0
 71
     5
 72
     1
  1
{\fArial|b0|i0|c0|p34;6.13"\P [155.70mm]}
  7
ROMANS
 73
     1
 44
1.0
1001
ACAD
1000
MTEXTBEGIN
1070
    73
1070
     1
1070
    44
1040
1.0
1070
    74
1070
     0
1000
MTEXTEND
  0
MTEXT
  5
296B1
330
18
100
AcDbEntity
  8
0
100
AcDbMText
 10
1.075996729802252
 20
6.109532570151953
 30
0.0
 40
0.09
 41
3.043
 71
     1
 72
     5
  1
{\fArial|b0|i0|c0|p34;5}
  7
ROMANT
 11
0.0000000000000001
 21
1.0
 31
0.0
 73
     1
 44
1.0
1001
ACAD
1000
MTEXTBEGIN
1070
    73
1070
     1
1070
    44
1040
1.0
1070
    74
1070
     0
1000
MTEXTEND
  0
MTEXT
  5
296B2
330
18
100
AcDbEntity
  8
0
100
AcDbMText
 10
0.6079879605036603
 20
6.102496597643476
 30
0.0
 40
0.09
 41
3.043
 71
     1
 72
     5
  1
{\fArial|b0|i0|c0|p34;2"}
  7
ROMANT
 11
0.0000000000000001
 21
1.0
 31
0.0
 73
     1
 44
1.0
1001
ACAD
1000
MTEXTBEGIN
1070
    73
1070
     1
1070
    44
1040
1.0
1070
    74
1070
     0
1000
MTEXTEND
  0
LINE
  5
296B3
330
18
100
AcDbEntity
  8
0
100
AcDbLine
 10
0.4891054787981908
 20
4.127241720443986
 30
0.0
 11
0.4891054787981908
 21
8.127241720443985
 31
0.0
  0
LINE
  5
296B4
330
18
100
AcDbEntity
  8
0
100
AcDbLine
 10
0.9571142480967829
 20
4.158741720443989
 30
0.0
 11
0.9571142480967829
 21
8.09574172044398
 31
0.0
  0
MTEXT
  5
296B5
330
18
100
AcDbEntity
  8
0
100
AcDbMText
 10
0.2407880671969487
 20
5.248606056160356
 30
0.0
 40
0.11
 41
3.043
 71
     1
 72
     5
  1
{\fArial|b0|i0|c0|p34;MEASURE  WITH A RULER.}
  7
ROMANT
 11
0.0000000000000001
 21
1.0
 31
0.0
 73
     1
 44
1.0
1001
ACAD
1000
MTEXTBEGIN
1070
    73
1070
     1
1070
    44
1040
1.0
1070
    74
1070
     0
1000
MTEXTEND
  0
MTEXT
  5
296B6
330
18
100
AcDbEntity
  8
0
100
AcDbMText
 10
6.168246770684625
 20
6.060900054242099
 30
0.0
 40
0.28
 41
7.928999999999999
 71
     2
 72
     5
  1
{\fArial|b1|i0|c0|p34;1. STOP          2. MEASURE           3. CUT}
  7
ROMANT
 11
0.0000000000000001
 21
1.0
 31
0.0
 73
     1
 44
1.0
1001
ACAD
1000
MTEXTBEGIN
1070
    73
1070
     1
1070
    44
1040
1.0
1070
    74
1070
     0
1000
MTEXTEND
  0
MTEXT
  5
296B7
330
18
100
AcDbEntity
  8
0
100
AcDbMText
 10
-0.6410357966831555
 20
6.060900054242099
 30
0.0
 40
0.28
 41
7.928999999999999
 71
     2
 72
     5
  1
{\fArial|b1|i0|c0|p34;1. STOP          2. MEASURE           3. CUT}
  7
ROMANT
 11
0.0000000000000001
 21
1.0
 31
0.0
 73
     1
 44
1.0
1001
ACAD
1000
MTEXTBEGIN
1070
    73
1070
     1
1070
    44
1040
1.0
1070
    74
1070
     0
1000
MTEXTEND
  0
LINE
  5
296BA
330
18
100
AcDbEntity
  8
0
100
AcDbLine
 10
7.132533311168018
 20
11.62724172044399
 30
0.0
 11
7.132533311168018
 21
0.6272417204439887
 31
0.0
  0
LINE
  5
296BB
330
18
100
AcDbEntity
  8
TITLE
  6
ACAD_ISO07W100
 48
0.05
100
AcDbLine
 10
6.632533311168032
 20
10.92724172044399
 30
0.0
 11
6.632533311168018
 21
1.327241720443987
 31
0.0
  0
LINE
  5
296BC
330
18
100
AcDbEntity
  8
0
100
AcDbLine
 10
-1.367466688831981
 20
11.62724172044399
 30
0.0
 11
-1.367466688831981
 21
0.6272417204439904
 31
0.0
  0
LINE
  5
296BD
330
18
100
AcDbEntity
  8
TITLE
  6
ACAD_ISO07W100
 48
0.05
100
AcDbLine
 10
-0.8674666888319819
 20
10.92724172044399
 30
0.0
 11
-0.8674666888319784
 21
1.327241720443987
 31
0.0
  0
MTEXT
  5
296BE
330
18
100
AcDbEntity
  8
0
100
AcDbMText
 10
2.03033989553149
 20
3.309290080431043
 30
0.0
 40
0.28
 41
7.929
 71
     2
 72
     5
  1
{\fArial|b1|i0|c0|p34;MAIN CUT-OUT}
  7
ROMANT
 11
0.0000000000000001
 21
1.0
 31
0.0
 73
     1
 44
1.0
1001
ACAD
1000
MTEXTBEGIN
1070
    73
1070
     1
1070
    44
1040
1.0
1070
    74
1070
     0
1000
MTEXTEND
  0
LINE
  5
296BF
330
18
100
AcDbEntity
  8
0
100
AcDbLine
 10
1.8144818868453
 20
6.127241720443989
 30
0.0
 11
4.076724170112484
 21
6.127241720443989
 31
0.0
  0
LINE
  5
296C1
330
18
100
AcDbEntity
  8
0
100
AcDbLine
 10
7.132533311168018
 20
0.6272417204439887
 30
0.0
 11
-1.367466688831981
 21
0.6272417204439904
 31
0.0
  0
LINE
  5
296C2
330
18
100
AcDbEntity
  8
TITLE
  6
ACAD_ISO07W100
 48
0.05
100
AcDbLine
 10
6.632533311168018
 20
1.277241720443988
 30
0.0
 11
-0.8674666888319819
 21
1.277241720443988
 31
0.0
  0
MTEXT
  5
296C3
330
18
100
AcDbEntity
  8
0
100
AcDbMText
 10
0.4088123508419486
 20
1.47781455980095
 30
0.0
 40
0.093
 41
3.043
 71
     1
 72
     5
  1
{\fArial Narrow|b1|i0|c0|p34;THIS IS A PRECISION CUT-OUT TEMPLATE.\P\fArial|b1|i0|c0|p34;\H1.237x;DO NOT SCALE OR ADJUST!}
  7
ROMANT
 11
0.0000000000000001
 21
1.0
 31
0.0
 73
     1
 44
1.0
1001
ACAD
1000
MTEXTBEGIN
1070
    73
1070
     1
1070
    44
1040
1.0
1070
    74
1070
     0
1000
MTEXTEND
  0
LINE
  5
296C5
330
18
100
AcDbEntity
  8
0
100
AcDbLine
 10
-1.367466688831981
 20
1.331448381457289
 30
0.0
 11
-0.0246360485666926
 21
1.331448381457289
 31
0.0
  0
LINE
  5
296C6
330
18
100
AcDbEntity
  8
0
100
AcDbLine
 10
-0.2174666888319932
 20
1.516937812849752
 30
0.0
 11
-0.2174666888319932
 21
0.6272417204439904
 31
0.0
  0
LINE
  5
296C8
330
18
100
AcDbEntity
  8
0
100
AcDbLine
 10
-1.367466688831981
 20
6.127241720443989
 30
0.0
 11
-0.7324587952544235
 21
6.127241720443989
 31
0.0
  0
MTEXT
  5
296C9
330
18
100
AcDbEntity
  8
0
100
AcDbMText
 10
0.3629469031100818
 20
4.187744215997616
 30
0.0
 40
0.09
 41
3.043
 71
     1
 72
     5
  1
{\fArial|b0|i0|c0|p34;inch.}
  7
ROMANT
 11
0.0000000000000001
 21
1.0
 31
0.0
 73
     1
 44
1.0
1001
ACAD
1000
MTEXTBEGIN
1070
    73
1070
     1
1070
    44
1040
1.0
1070
    74
1070
     0
1000
MTEXTEND
  0
MTEXT
  5
296CA
330
18
100
AcDbEntity
  8
0
100
AcDbMText
 10
0.6079879605036603
 20
4.102496597643476
 30
0.0
 40
0.09
 41
3.043
 71
     1
 72
     5
  1
{\fArial|b0|i0|c0|p34;0"}
  7
ROMANT
 11
0.0000000000000001
 21
1.0
 31
0.0
 73
     1
 44
1.0
1001
ACAD
1000
MTEXTBEGIN
1070
    73
1070
     1
1070
    44
1040
1.0
1070
    74
1070
     0
1000
MTEXTEND
  0
LINE
  5
296CE
330
18
100
AcDbEntity
  8
0
100
AcDbLine
 10
0.5610723602881756
 20
4.127241720443986
 30
0.0
 11
0.4171385973082061
 21
4.127241720443986
 31
0.0
  0
MTEXT
  5
296CF
330
18
100
AcDbEntity
  8
0
100
AcDbMText
 10
0.8307645691462006
 20
4.19230939340599
 30
0.0
 40
0.09
 41
3.043
 71
     1
 72
     5
  1
{\fArial|b0|i0|c0|p34;cm.}
  7
ROMANT
 11
0.0000000000000001
 21
1.0
 31
0.0
 73
     1
 44
1.0
1001
ACAD
1000
MTEXTBEGIN
1070
    73
1070
     1
1070
    44
1040
1.0
1070
    74
1070
     0
1000
MTEXTEND
  0
LINE
  5
296D0
330
18
100
AcDbEntity
  8
0
100
AcDbLine
 10
1.029081129586767
 20
4.158741720443989
 30
0.0
 11
0.8851473666067981
 21
4.158741720443989
 31
0.0
  0
MTEXT
  5
296D1
330
18
100
AcDbEntity
  8
0
100
AcDbMText
 10
1.075996729802252
 20
4.133996597643479
 30
0.0
 40
0.09
 41
3.043
 71
     1
 72
     5
  1
{\fArial|b0|i0|c0|p34;0}
  7
ROMANT
 11
0.0000000000000001
 21
1.0
 31
0.0
 73
     1
 44
1.0
1001
ACAD
1000
MTEXTBEGIN
1070
    73
1070
     1
1070
    44
1040
1.0
1070
    74
1070
     0
1000
MTEXTEND
  0
MTEXT
  5
296D2
330
18
100
AcDbEntity
  8
0
100
AcDbMText
 10
0.6079879605036603
 20
5.102496597643476
 30
0.0
 40
0.09
 41
3.043
 71
     1
 72
     5
  1
{\fArial|b0|i0|c0|p34;1"}
  7
ROMANT
 11
0.0000000000000001
 21
1.0
 31
0.0
 73
     1
 44
1.0
1001
ACAD
1000
MTEXTBEGIN
1070
    73
1070
     1
1070
    44
1040
1.0
1070
    74
1070
     0
1000
MTEXTEND
  0
POINT
  5
296D3
330
18
100
AcDbEntity
  8
0
100
AcDbPoint
 10
0.4891054787981908
 20
5.127241720443986
 30
0.0
  0
LINE
  5
296D4
330
18
100
AcDbEntity
  8
0
100
AcDbLine
 10
0.5610723602881756
 20
5.127241720443986
 30
0.0
 11
0.4171385973082061
 21
5.127241720443986
 31
0.0
  0
LINE
  5
296D5
330
18
100
AcDbEntity
  8
0
100
AcDbLine
 10
-0.3092501915195482
 20
6.127241720443989
 30
0.0
 11
0.0804868048637255
 21
6.127241720443989
 31
0.0
  0
LINE
  5
296D6
330
18
100
AcDbEntity
  8
0
100
AcDbLine
 10
1.029081129586767
 20
4.552441720443988
 30
0.0
 11
0.8851473666067981
 21
4.552441720443988
 31
0.0
  0
MTEXT
  5
296D7
330
18
100
AcDbEntity
  8
0
100
AcDbMText
 10
1.075996729802252
 20
4.534732570151957
 30
0.0
 40
0.09
 41
3.043
 71
     1
 72
     5
  1
{\fArial|b0|i0|c0|p34;1}
  7
ROMANT
 11
0.0000000000000001
 21
1.0
 31
0.0
 73
     1
 44
1.0
1001
ACAD
1000
MTEXTBEGIN
1070
    73
1070
     1
1070
    44
1040
1.0
1070
    74
1070
     0
1000
MTEXTEND
  0
LINE
  5
296D8
330
18
100
AcDbEntity
  8
0
100
AcDbLine
 10
1.029081129586767
 20
4.946141720443987
 30
0.0
 11
0.8851473666067981
 21
4.946141720443987
 31
0.0
  0
MTEXT
  5
296D9
330
18
100
AcDbEntity
  8
0
100
AcDbMText
 10
1.075996729802252
 20
4.928432570151956
 30
0.0
 40
0.09
 41
3.043
 71
     1
 72
     5
  1
{\fArial|b0|i0|c0|p34;2}
  7
ROMANT
 11
0.0000000000000001
 21
1.0
 31
0.0
 73
     1
 44
1.0
1001
ACAD
1000
MTEXTBEGIN
1070
    73
1070
     1
1070
    44
1040
1.0
1070
    74
1070
     0
1000
MTEXTEND
  0
MTEXT
  5
296DA
330
18
100
AcDbEntity
  8
0
100
AcDbMText
 10
1.075996729802252
 20
5.715832570151954
 30
0.0
 40
0.09
 41
3.043
 71
     1
 72
     5
  1
{\fArial|b0|i0|c0|p34;4}
  7
ROMANT
 11
0.0000000000000001
 21
1.0
 31
0.0
 73
     1
 44
1.0
1001
ACAD
1000
MTEXTBEGIN
1070
    73
1070
     1
1070
    44
1040
1.0
1070
    74
1070
     0
1000
MTEXTEND
  0
LINE
  5
296DB
330
18
100
AcDbEntity
  8
0
100
AcDbLine
 10
1.029081129586767
 20
5.339841720443986
 30
0.0
 11
0.8851473666067981
 21
5.339841720443986
 31
0.0
  0
MTEXT
  5
296DC
330
18
100
AcDbEntity
  8
0
100
AcDbMText
 10
1.075996729802252
 20
5.322132570151955
 30
0.0
 40
0.09
 41
3.043
 71
     1
 72
     5
  1
{\fArial|b0|i0|c0|p34;3}
  7
ROMANT
 11
0.0000000000000001
 21
1.0
 31
0.0
 73
     1
 44
1.0
1001
ACAD
1000
MTEXTBEGIN
1070
    73
1070
     1
1070
    44
1040
1.0
1070
    74
1070
     0
1000
MTEXTEND
  0
LINE
  5
296DD
330
18
100
AcDbEntity
  8
0
100
AcDbLine
 10
1.029081129586767
 20
5.733541720443986
 30
0.0
 11
0.8851473666067981
 21
5.733541720443986
 31
0.0
  0
LINE
  5
296DE
330
18
100
AcDbEntity
  8
0
100
AcDbLine
 10
0.7283563097533162
 20
6.127241720443986
 30
0.0
 11
0.8647117482875685
 21
6.127241720443986
 31
0.0
  0
MTEXT
  5
296DF
330
18
100
AcDbEntity
  8
0
100
AcDbMText
 10
3.840588853631707
 20
2.054436015133529
 30
0.0
 40
0.12
 41
1.098801137163555
 71
     1
 72
     5
  1
{\fArial Narrow|b1|i0|c0|p34;\LCUT TO THE\POUTSIDE OF\PTHE LINE.}
  7
ROMANT
 11
0.0000000000000001
 21
1.0
 31
0.0
 73
     1
 44
1.0
1001
ACAD
1000
MTEXTBEGIN
1070
    73
1070
     1
1070
    44
1040
1.0
1070
    74
1070
     0
1000
MTEXTEND
  0
LINE
  5
296E1
330
18
100
AcDbEntity
  8
0
100
AcDbLine
 10
2.882533311168018
 20
0.6272417204439896
 30
0.0
 11
2.882533311168018
 21
3.004035147742843
 31
0.0
  0
SOLID
  5
296E3
330
18
100
AcDbEntity
  8
0
100
AcDbTrace
 10
2.852533311168016
 20
1.511448381457332
 30
0.0
 11
2.912533311168019
 21
1.511448381457332
 31
0.0
 12
2.882533311168018
 22
1.345921278292941
 32
0.0
 13
2.882533311168018
 23
1.345921278292941
 33
0.0
  0
LINE
  5
296E4
330
18
100
AcDbEntity
  8
0
100
AcDbLine
 10
3.964291948015123
 20
1.857693915169166
 30
0.0
 11
4.17265411918991
 21
1.488275831334977
 31
0.0
  0
SOLID
  5
296E5
330
18
100
AcDbEntity
  8
0
100
AcDbTrace
 10
4.146523932284505
 20
1.473537672281405
 30
0.0
 11
4.198784306095319
 21
1.503013990388549
 31
0.0
 12
4.261083073511343
 22
1.354557902335497
 32
0.0
 13
4.261083073511343
 23
1.354557902335497
 33
0.0
  0
LINE
  5
296E6
330
18
100
AcDbEntity
  8
0
100
AcDbLine
 10
3.963991676076986
 20
1.987624598508137
 30
0.0
 11
3.964291948015123
 21
1.857693915169166
 31
0.0
  0
LINE
  5
296E7
330
18
100
AcDbEntity
  8
0
100
AcDbLine
 10
5.98253331116803
 20
1.516937812849752
 30
0.0
 11
5.98253331116803
 21
0.6272417204439887
 31
0.0
  0
LINE
  5
296E8
330
18
100
AcDbEntity
  8
0
100
AcDbLine
 10
7.132533311168018
 20
1.331448381457289
 30
0.0
 11
5.789702670902721
 21
1.331448381457289
 31
0.0
  0
LINE
  5
296ED
330
18
100
AcDbEntity
  8
0
100
AcDbLine
 10
4.722365793300014
 20
6.127241720443989
 30
0.0
 11
6.058494721313984
 21
6.127241720443989
 31
0.0
  0
MTEXT
  5
296EE
330
18
100
AcDbEntity
  8
0
100
AcDbMText
 10
2.898293801554327
 20
3.730739091994141
 30
0.0
 40
0.14
 41
0.0
 71
     5
 72
     1
  1
{\fArial|b0|i0|c0|p34;9.570"\P [243.08mm]}
  7
ROMANS
 11
0.0000000000000001
 21
1.0
 31
0.0
 73
     1
 44
1.0
1001
ACAD
1000
MTEXTBEGIN
1070
    73
1070
     1
1070
    44
1040
1.0
1070
    74
1070
     0
1000
MTEXTEND
  0
MTEXT
  5
296EF
330
18
100
AcDbEntity
  8
0
100
AcDbMText
 10
5.780317727287201
 20
4.149078942249886
 30
0.0
 40
0.16
 41
3.043
 71
     1
 72
     5
  1
{\fArial|b0|i0|c0|p34;FRONT}
  7
ROMANT
 11
0.0000000000000003
 21
1.0
 31
0.0
 73
     1
 44
1.0
1001
ACAD
1000
MTEXTBEGIN
1070
    73
1070
     1
1070
    44
1040
1.0
1070
    74
1070
     0
1000
MTEXTEND
  0
LINE
  5
296F0
330
18
100
AcDbEntity
  8
0
100
AcDbLine
 10
6.531703325048859
 20
6.127241720443988
 30
0.0
 11
7.132533311168018
 21
6.127241720443988
 31
0.0
  0
LINE
  5
296F1
330
18
100
AcDbEntity
  8
0
100
AcDbLine
 10
0.882533311168018
 20
10.37692442116729
 30
0.0
 11
4.882533311168018
 21
10.37692442116729
 31
0.0
  0
LINE
  5
296F2
330
18
100
AcDbEntity
  8
0
100
AcDbLine
 10
0.9140333111680192
 20
9.858270388852728
 30
0.0
 11
4.851033311168009
 21
9.858270388852728
 31
0.0
  0
LINE
  5
296F4
330
18
100
AcDbEntity
  8
0
100
AcDbLine
 10
-1.367466688831981
 20
11.62724172044399
 30
0.0
 11
7.132533311168018
 21
11.62724172044399
 31
0.0
  0
LINE
  5
296F5
330
18
100
AcDbEntity
  8
TITLE
  6
ACAD_ISO07W100
 48
0.05
100
AcDbLine
 10
-0.8674666888319819
 20
10.97724172044399
 30
0.0
 11
6.632533311168018
 21
10.97724172044399
 31
0.0
  0
MTEXT
  5
296F6
330
18
100
AcDbEntity
  8
0
100
AcDbMText
 10
1.661992194821884
 20
9.733439497122761
 30
0.0
 40
0.09
 41
3.043
 71
     1
 72
     5
  1
{\fArial|b0|i0|c0|p34;2}
  7
ROMANT
 73
     1
 44
1.0
1001
ACAD
1000
MTEXTBEGIN
1070
    73
1070
     1
1070
    44
1040
1.0
1070
    74
1070
     0
1000
MTEXTEND
  0
MTEXT
  5
296F7
330
18
100
AcDbEntity
  8
0
100
AcDbMText
 10
1.268292194821889
 20
9.733439497122761
 30
0.0
 40
0.09
 41
3.043
 71
     1
 72
     5
  1
{\fArial|b0|i0|c0|p34;1}
  7
ROMANT
 73
     1
 44
1.0
1001
ACAD
1000
MTEXTBEGIN
1070
    73
1070
     1
1070
    44
1040
1.0
1070
    74
1070
     0
1000
MTEXTEND
  0
MTEXT
  5
296F9
330
18
100
AcDbEntity
  8
0
100
AcDbMText
 10
0.6079879605036603
 20
7.102496597643474
 30
0.0
 40
0.09
 41
3.043
 71
     1
 72
     5
  1
{\fArial|b0|i0|c0|p34;3"}
  7
ROMANT
 11
0.0000000000000001
 21
1.0
 31
0.0
 73
     1
 44
1.0
1001
ACAD
1000
MTEXTBEGIN
1070
    73
1070
     1
1070
    44
1040
1.0
1070
    74
1070
     0
1000
MTEXTEND
  0
POINT
  5
296FA
330
18
100
AcDbEntity
  8
0
100
AcDbPoint
 10
0.4891054787981908
 20
7.127241720443985
 30
0.0
  0
LINE
  5
296FB
330
18
100
AcDbEntity
  8
0
100
AcDbLine
 10
0.5610723602881756
 20
7.127241720443985
 30
0.0
 11
0.4171385973082061
 21
7.127241720443985
 31
0.0
  0
LINE
  5
296FC
330
18
100
AcDbEntity
  8
0
100
AcDbLine
 10
1.029081129586767
 20
6.520941720443984
 30
0.0
 11
0.8851473666067981
 21
6.520941720443984
 31
0.0
  0
MTEXT
  5
296FD
330
18
100
AcDbEntity
  8
0
100
AcDbMText
 10
1.075996729802252
 20
6.503232570151952
 30
0.0
 40
0.09
 41
3.043
 71
     1
 72
     5
  1
{\fArial|b0|i0|c0|p34;6}
  7
ROMANT
 11
0.0000000000000001
 21
1.0
 31
0.0
 73
     1
 44
1.0
1001
ACAD
1000
MTEXTBEGIN
1070
    73
1070
     1
1070
    44
1040
1.0
1070
    74
1070
     0
1000
MTEXTEND
  0
LINE
  5
296FE
330
18
100
AcDbEntity
  8
0
100
AcDbLine
 10
1.029081129586767
 20
6.914641720443983
 30
0.0
 11
0.8851473666067981
 21
6.914641720443983
 31
0.0
  0
MTEXT
  5
296FF
330
18
100
AcDbEntity
  8
0
100
AcDbMText
 10
1.075996729802252
 20
6.896932570151951
 30
0.0
 40
0.09
 41
3.043
 71
     1
 72
     5
  1
{\fArial|b0|i0|c0|p34;7}
  7
ROMANT
 11
0.0000000000000001
 21
1.0
 31
0.0
 73
     1
 44
1.0
1001
ACAD
1000
MTEXTBEGIN
1070
    73
1070
     1
1070
    44
1040
1.0
1070
    74
1070
     0
1000
MTEXTEND
  0
LINE
  5
29700
330
18
100
AcDbEntity
  8
0
100
AcDbLine
 10
1.029081129586767
 20
7.308341720443982
 30
0.0
 11
0.8851473666067981
 21
7.308341720443982
 31
0.0
  0
MTEXT
  5
29701
330
18
100
AcDbEntity
  8
0
100
AcDbMText
 10
1.075996729802252
 20
7.29063257015195
 30
0.0
 40
0.09
 41
3.043
 71
     1
 72
     5
  1
{\fArial|b0|i0|c0|p34;8}
  7
ROMANT
 11
0.0000000000000001
 21
1.0
 31
0.0
 73
     1
 44
1.0
1001
ACAD
1000
MTEXTBEGIN
1070
    73
1070
     1
1070
    44
1040
1.0
1070
    74
1070
     0
1000
MTEXTEND
  0
LINE
  5
29702
330
18
100
AcDbEntity
  8
0
100
AcDbLine
 10
1.029081129586767
 20
7.702041720443981
 30
0.0
 11
0.8851473666067981
 21
7.702041720443981
 31
0.0
  0
MTEXT
  5
29703
330
18
100
AcDbEntity
  8
0
100
AcDbMText
 10
1.075996729802252
 20
7.68433257015195
 30
0.0
 40
0.09
 41
3.043
 71
     1
 72
     5
  1
{\fArial|b0|i0|c0|p34;9}
  7
ROMANT
 11
0.0000000000000001
 21
1.0
 31
0.0
 73
     1
 44
1.0
1001
ACAD
1000
MTEXTBEGIN
1070
    73
1070
     1
1070
    44
1040
1.0
1070
    74
1070
     0
1000
MTEXTEND
  0
MTEXT
  5
29704
330
18
100
AcDbEntity
  8
0
100
AcDbMText
 10
0.6079879605036603
 20
8.102496597643474
 30
0.0
 40
0.09
 41
3.043
 71
     1
 72
     5
  1
{\fArial|b0|i0|c0|p34;4"}
  7
ROMANT
 11
0.0000000000000001
 21
1.0
 31
0.0
 73
     1
 44
1.0
1001
ACAD
1000
MTEXTBEGIN
1070
    73
1070
     1
1070
    44
1040
1.0
1070
    74
1070
     0
1000
MTEXTEND
  0
LINE
  5
29705
330
18
100
AcDbEntity
  8
0
100
AcDbLine
 10
0.5610723602881756
 20
8.127241720443985
 30
0.0
 11
0.4171385973082061
 21
8.127241720443985
 31
0.0
  0
LINE
  5
29706
330
18
100
AcDbEntity
  8
0
100
AcDbLine
 10
1.029081129586767
 20
8.09574172044398
 30
0.0
 11
0.8851473666067981
 21
8.09574172044398
 31
0.0
  0
MTEXT
  5
29707
330
18
100
AcDbEntity
  8
0
100
AcDbMText
 10
1.075996729802252
 20
8.038445967658452
 30
0.0
 40
0.09
 41
3.043
 71
     1
 72
     5
  1
{\fArial|b0|i0|c0|p34;10}
  7
ROMANT
 11
0.0000000000000001
 21
1.0
 31
0.0
 73
     1
 44
1.0
1001
ACAD
1000
MTEXTBEGIN
1070
    73
1070
     1
1070
    44
1040
1.0
1070
    74
1070
     0
1000
MTEXTEND
  0
LINE
  5
29708
330
18
100
AcDbEntity
  8
0
100
AcDbLine
 10
-1.367466688831981
 20
10.92303505943069
 30
0.0
 11
-0.024636048566693
 21
10.92303505943069
 31
0.0
  0
LINE
  5
29709
330
18
100
AcDbEntity
  8
0
100
AcDbLine
 10
-0.2174666888319932
 20
10.73754562803822
 30
0.0
 11
-0.2174666888319932
 21
11.62724172044399
 31
0.0
  0
MTEXT
  5
2970B
330
18
100
AcDbEntity
  8
0
100
AcDbMText
 10
0.918452790442835
 20
10.49414583470219
 30
0.0
 40
0.09
 41
3.043
 71
     1
 72
     5
  1
{\fArial|b0|i0|c0|p34;inch.}
  7
ROMANT
 73
     1
 44
1.0
1001
ACAD
1000
MTEXTBEGIN
1070
    73
1070
     1
1070
    44
1040
1.0
1070
    74
1070
     0
1000
MTEXTEND
  0
MTEXT
  5
2970C
330
18
100
AcDbEntity
  8
0
100
AcDbMText
 10
0.8892881883675087
 20
9.739387907147259
 30
0.0
 40
0.09
 41
3.043
 71
     1
 72
     5
  1
{\fArial|b0|i0|c0|p34;0}
  7
ROMANT
 73
     1
 44
1.0
1001
ACAD
1000
MTEXTBEGIN
1070
    73
1070
     1
1070
    44
1040
1.0
1070
    74
1070
     0
1000
MTEXTEND
  0
MTEXT
  5
2970D
330
18
100
AcDbEntity
  8
0
100
AcDbMText
 10
0.9448455575411571
 20
9.974703306678145
 30
0.0
 40
0.09
 41
3.043
 71
     1
 72
     5
  1
{\fArial|b0|i0|c0|p34;cm.}
  7
ROMANT
 73
     1
 44
1.0
1001
ACAD
1000
MTEXTBEGIN
1070
    73
1070
     1
1070
    44
1040
1.0
1070
    74
1070
     0
1000
MTEXTEND
  0
LINE
  5
2970E
330
18
100
AcDbEntity
  8
0
100
AcDbLine
 10
0.9140333111680192
 20
9.786303507362744
 30
0.0
 11
0.9140333111680192
 21
9.930237270342713
 31
0.0
  0
MTEXT
  5
2970F
330
18
100
AcDbEntity
  8
0
100
AcDbMText
 10
0.8577881883675075
 20
10.25804193946182
 30
0.0
 40
0.09
 41
3.043
 71
     1
 72
     5
  1
{\fArial|b0|i0|c0|p34;0"}
  7
ROMANT
 73
     1
 44
1.0
1001
ACAD
1000
MTEXTBEGIN
1070
    73
1070
     1
1070
    44
1040
1.0
1070
    74
1070
     0
1000
MTEXTEND
  0
LINE
  5
29710
330
18
100
AcDbEntity
  8
0
100
AcDbLine
 10
0.882533311168018
 20
10.30495753967731
 30
0.0
 11
0.882533311168018
 21
10.44889130265728
 31
0.0
  0
LINE
  5
29711
330
18
100
AcDbEntity
  8
0
100
AcDbLine
 10
1.307733311168021
 20
9.786303507362744
 30
0.0
 11
1.307733311168021
 21
9.930237270342713
 31
0.0
  0
LINE
  5
29712
330
18
100
AcDbEntity
  8
0
100
AcDbLine
 10
1.701433311168017
 20
9.786303507362744
 30
0.0
 11
1.701433311168017
 21
9.930237270342713
 31
0.0
  0
MTEXT
  5
29713
330
18
100
AcDbEntity
  8
0
100
AcDbMText
 10
1.857788188367507
 20
10.25804193946182
 30
0.0
 40
0.09
 41
3.043
 71
     1
 72
     5
  1
{\fArial|b0|i0|c0|p34;1"}
  7
ROMANT
 73
     1
 44
1.0
1001
ACAD
1000
MTEXTBEGIN
1070
    73
1070
     1
1070
    44
1040
1.0
1070
    74
1070
     0
1000
MTEXTEND
  0
POINT
  5
29714
330
18
100
AcDbEntity
  8
0
100
AcDbPoint
 10
1.882533311168018
 20
10.37692442116729
 30
0.0
  0
LINE
  5
29715
330
18
100
AcDbEntity
  8
0
100
AcDbLine
 10
1.882533311168018
 20
10.30495753967731
 30
0.0
 11
1.882533311168018
 21
10.44889130265728
 31
0.0
  0
MTEXT
  5
29716
330
18
100
AcDbEntity
  8
0
100
AcDbMText
 10
4.42979527174991
 20
9.733439497122761
 30
0.0
 40
0.09
 41
3.043
 71
     1
 72
     5
  1
{\fArial|b0|i0|c0|p34;9}
  7
ROMANT
 73
     1
 44
1.0
1001
ACAD
1000
MTEXTBEGIN
1070
    73
1070
     1
1070
    44
1040
1.0
1070
    74
1070
     0
1000
MTEXTEND
  0
MTEXT
  5
29717
330
18
100
AcDbEntity
  8
0
100
AcDbMText
 10
4.024192194821878
 20
9.733439497122761
 30
0.0
 40
0.09
 41
3.043
 71
     1
 72
     5
  1
{\fArial|b0|i0|c0|p34;8}
  7
ROMANT
 73
     1
 44
1.0
1001
ACAD
1000
MTEXTBEGIN
1070
    73
1070
     1
1070
    44
1040
1.0
1070
    74
1070
     0
1000
MTEXTEND
  0
MTEXT
  5
29718
330
18
100
AcDbEntity
  8
0
100
AcDbMText
 10
3.630492194821883
 20
9.733439497122761
 30
0.0
 40
0.09
 41
3.043
 71
     1
 72
     5
  1
{\fArial|b0|i0|c0|p34;7}
  7
ROMANT
 73
     1
 44
1.0
1001
ACAD
1000
MTEXTBEGIN
1070
    73
1070
     1
1070
    44
1040
1.0
1070
    74
1070
     0
1000
MTEXTEND
  0
MTEXT
  5
29719
330
18
100
AcDbEntity
  8
0
100
AcDbMText
 10
2.449392194821882
 20
9.733439497122761
 30
0.0
 40
0.09
 41
3.043
 71
     1
 72
     5
  1
{\fArial|b0|i0|c0|p34;4}
  7
ROMANT
 73
     1
 44
1.0
1001
ACAD
1000
MTEXTBEGIN
1070
    73
1070
     1
1070
    44
1040
1.0
1070
    74
1070
     0
1000
MTEXTEND
  0
MTEXT
  5
2971A
330
18
100
AcDbEntity
  8
0
100
AcDbMText
 10
2.055692194821887
 20
9.733439497122761
 30
0.0
 40
0.09
 41
3.043
 71
     1
 72
     5
  1
{\fArial|b0|i0|c0|p34;3}
  7
ROMANT
 73
     1
 44
1.0
1001
ACAD
1000
MTEXTBEGIN
1070
    73
1070
     1
1070
    44
1040
1.0
1070
    74
1070
     0
1000
MTEXTEND
  0
MTEXT
  5
2971B
330
18
100
AcDbEntity
  8
0
100
AcDbMText
 10
3.23679219482188
 20
9.733439497122761
 30
0.0
 40
0.09
 41
3.043
 71
     1
 72
     5
  1
{\fArial|b0|i0|c0|p34;6}
  7
ROMANT
 73
     1
 44
1.0
1001
ACAD
1000
MTEXTBEGIN
1070
    73
1070
     1
1070
    44
1040
1.0
1070
    74
1070
     0
1000
MTEXTEND
  0
MTEXT
  5
2971C
330
18
100
AcDbEntity
  8
0
100
AcDbMText
 10
2.093132700286354
 20
9.50617206754144
 30
0.0
 40
0.11
 41
3.043
 71
     1
 72
     5
  1
{\fArial|b0|i0|c0|p34;MEASURE  WITH A RULER.}
  7
ROMANT
 73
     1
 44
1.0
1001
ACAD
1000
MTEXTBEGIN
1070
    73
1070
     1
1070
    44
1040
1.0
1070
    74
1070
     0
1000
MTEXTEND
  0
MTEXT
  5
2971D
330
18
100
AcDbEntity
  8
0
100
AcDbMText
 10
5.780317727287201
 20
7.194394954397765
 30
0.0
 40
0.16
 41
3.043
 71
     1
 72
     5
  1
{\fArial|b0|i0|c0|p34;FRONT}
  7
ROMANT
 11
0.0000000000000003
 21
1.0
 31
0.0
 73
     1
 44
1.0
1001
ACAD
1000
MTEXTBEGIN
1070
    73
1070
     1
1070
    44
1040
1.0
1070
    74
1070
     0
1000
MTEXTEND
  0
MTEXT
  5
2971E
330
18
100
AcDbEntity
  8
0
100
AcDbMText
 10
4.793737558382488
 20
9.739387907147259
 30
0.0
 40
0.09
 41
3.043
 71
     1
 72
     5
  1
{\fArial|b0|i0|c0|p34;10}
  7
ROMANT
 73
     1
 44
1.0
1001
ACAD
1000
MTEXTBEGIN
1070
    73
1070
     1
1070
    44
1040
1.0
1070
    74
1070
     0
1000
MTEXTEND
  0
LINE
  5
2971F
330
18
100
AcDbEntity
  8
0
100
AcDbLine
 10
2.882533311168018
 20
10.5600833521507
 30
0.0
 11
2.882533311168018
 21
11.62724172044399
 31
0.0
  0
LINE
  5
29720
330
18
100
AcDbEntity
  8
0
100
AcDbLine
 10
2.095133311168019
 20
9.786303507362744
 30
0.0
 11
2.095133311168019
 21
9.930237270342713
 31
0.0
  0
LINE
  5
29721
330
18
100
AcDbEntity
  8
0
100
AcDbLine
 10
2.488833311168015
 20
9.786303507362744
 30
0.0
 11
2.488833311168015
 21
9.930237270342713
 31
0.0
  0
LINE
  5
29722
330
18
100
AcDbEntity
  8
0
100
AcDbLine
 10
2.882533311168018
 20
10.01513573461509
 30
0.0
 11
2.882533311168018
 21
10.11067719266424
 31
0.0
  0
LINE
  5
29723
330
18
100
AcDbEntity
  8
0
100
AcDbLine
 10
2.882533311168018
 20
9.786303507362744
 30
0.0
 11
2.882533311168018
 21
9.930237270342713
 31
0.0
  0
MTEXT
  5
29724
330
18
100
AcDbEntity
  8
0
100
AcDbMText
 10
2.82523755838249
 20
9.739387907147259
 30
0.0
 40
0.09
 41
3.043
 71
     1
 72
     5
  1
{\fArial|b0|i0|c0|p34;5}
  7
ROMANT
 73
     1
 44
1.0
1001
ACAD
1000
MTEXTBEGIN
1070
    73
1070
     1
1070
    44
1040
1.0
1070
    74
1070
     0
1000
MTEXTEND
  0
LINE
  5
29725
330
18
100
AcDbEntity
  8
0
100
AcDbLine
 10
3.276233311168013
 20
9.786303507362744
 30
0.0
 11
3.276233311168013
 21
9.930237270342713
 31
0.0
  0
MTEXT
  5
29726
330
18
100
AcDbEntity
  8
0
100
AcDbMText
 10
2.857788188367507
 20
10.25804193946182
 30
0.0
 40
0.09
 41
3.043
 71
     1
 72
     5
  1
{\fArial|b0|i0|c0|p34;2"}
  7
ROMANT
 73
     1
 44
1.0
1001
ACAD
1000
MTEXTBEGIN
1070
    73
1070
     1
1070
    44
1040
1.0
1070
    74
1070
     0
1000
MTEXTEND
  0
LINE
  5
29727
330
18
100
AcDbEntity
  8
0
100
AcDbLine
 10
2.882533311168018
 20
10.30495753967731
 30
0.0
 11
2.882533311168018
 21
10.44889130265728
 31
0.0
  0
SOLID
  5
29729
330
18
100
AcDbEntity
  8
0
100
AcDbTrace
 10
2.852533311168016
 20
10.74303505943065
 30
0.0
 11
2.912533311168019
 21
10.74303505943065
 31
0.0
 12
2.882533311168018
 22
10.90856216259506
 32
0.0
 13
2.882533311168018
 23
10.90856216259506
 33
0.0
  0
LINE
  5
2972A
330
18
100
AcDbEntity
  8
0
100
AcDbLine
 10
3.669933311168016
 20
9.786303507362744
 30
0.0
 11
3.669933311168016
 21
9.930237270342713
 31
0.0
  0
LINE
  5
2972B
330
18
100
AcDbEntity
  8
0
100
AcDbLine
 10
4.063633311168011
 20
9.786303507362744
 30
0.0
 11
4.063633311168011
 21
9.930237270342713
 31
0.0
  0
MTEXT
  5
2972C
330
18
100
AcDbEntity
  8
0
100
AcDbMText
 10
3.857788188367507
 20
10.25804193946182
 30
0.0
 40
0.09
 41
3.043
 71
     1
 72
     5
  1
{\fArial|b0|i0|c0|p34;3"}
  7
ROMANT
 73
     1
 44
1.0
1001
ACAD
1000
MTEXTBEGIN
1070
    73
1070
     1
1070
    44
1040
1.0
1070
    74
1070
     0
1000
MTEXTEND
  0
POINT
  5
2972D
330
18
100
AcDbEntity
  8
0
100
AcDbPoint
 10
3.882533311168018
 20
10.37692442116729
 30
0.0
  0
LINE
  5
2972E
330
18
100
AcDbEntity
  8
0
100
AcDbLine
 10
3.882533311168018
 20
10.30495753967731
 30
0.0
 11
3.882533311168018
 21
10.44889130265728
 31
0.0
  0
LINE
  5
2972F
330
18
100
AcDbEntity
  8
0
100
AcDbLine
 10
4.457333311168014
 20
9.786303507362744
 30
0.0
 11
4.457333311168014
 21
9.930237270342713
 31
0.0
  0
LINE
  5
29730
330
18
100
AcDbEntity
  8
0
100
AcDbLine
 10
5.98253331116803
 20
10.73754562803822
 30
0.0
 11
5.98253331116803
 21
11.62724172044399
 31
0.0
  0
LINE
  5
29731
330
18
100
AcDbEntity
  8
0
100
AcDbLine
 10
7.132533311168018
 20
10.92303505943069
 30
0.0
 11
5.789702670902721
 21
10.92303505943069
 31
0.0
  0
LINE
  5
29733
330
18
100
AcDbEntity
  8
0
100
AcDbLine
 10
4.851033311168009
 20
9.786303507362744
 30
0.0
 11
4.851033311168009
 21
9.930237270342713
 31
0.0
  0
MTEXT
  5
29734
330
18
100
AcDbEntity
  8
0
100
AcDbMText
 10
4.857788188367507
 20
10.25804193946182
 30
0.0
 40
0.09
 41
3.043
 71
     1
 72
     5
  1
{\fArial|b0|i0|c0|p34;4"}
  7
ROMANT
 73
     1
 44
1.0
1001
ACAD
1000
MTEXTBEGIN
1070
    73
1070
     1
1070
    44
1040
1.0
1070
    74
1070
     0
1000
MTEXTEND
  0
LINE
  5
29735
330
18
100
AcDbEntity
  8
0
100
AcDbLine
 10
4.882533311168018
 20
10.30495753967731
 30
0.0
 11
4.882533311168018
 21
10.44889130265728
 31
0.0
  0
MTEXT
  5
297CE
330
18
100
AcDbEntity
  8
0
100
AcDbMText
 10
5.259715285478794
 20
2.552866875205293
 30
0.0
 40
0.14
 41
0.0
 71
     5
 72
     1
  1
{\fArial|b0|i0|c0|p34;4x R.500"\P [R12.70mm]}
  7
ROMANS
 11
0.0000000000000001
 21
1.0
 31
0.0
 73
     1
 44
1.0
1001
ACAD
1000
MTEXTBEGIN
1070
    73
1070
     1
1070
    44
1040
1.0
1070
    74
1070
     0
1000
MTEXTEND
  0
LEADER
  5
297CF
330
18
100
AcDbEntity
  8
0
100
AcDbLeader
  3
3 plc dim
 76
     3
 10
5.667564626034586
 20
1.407765190790869
 30
0.0
 10
5.138669973599132
 20
1.917758445728282
 30
0.0
 10
5.138669973599132
 20
2.077829303876773
 30
0.0
1001
ACAD
1000
DSTYLE
1002
{
1070
     3
1000
\X
1070
    40
1040
1.0
1070
    44
1040
0.08
1070
    45
1040
0.0
1070
    78
1070
     4
1070
    79
1070
     1
1070
   141
1040
0.0
1070
   170
1070
     1
1070
   277
1070
     3
1002
}
  0
MTEXT
  5
29A21
330
18
100
AcDbEntity
  8
0
100
AcDbMText
 10
0.3920085448741233
 20
8.682517878351827
 30
0.0
 40
0.1
 41
3.043
 71
     1
 72
     5
  1
{\fArial Narrow|b0|i0|c0|p34;TNP600,TNP601,TNP602, YZ820-106}
  7
ROMANT
 11
0.0000000000000001
 21
1.0
 31
0.0
 73
     1
 44
1.0
1001
ACAD
1000
MTEXTBEGIN
1070
    73
1070
     1
1070
    44
1040
1.0
1070
    74
1070
     0
1000
MTEXTEND
  0
MTEXT
  5
29A22
330
18
100
AcDbEntity
  8
0
100
AcDbMText
 10
0.2346507293818973
 20
8.714143978300032
 30
0.0
 40
0.1
 41
3.043
 71
     1
 72
     5
  1
{\fArial Narrow|b1|i0|c0|p34;ALTINEX, INC. MODEL NUMBERS:}
  7
ROMANT
 11
0.0000000000000001
 21
1.0
 31
0.0
 73
     1
 44
1.0
1001
ACAD
1000
MTEXTBEGIN
1070
    73
1070
     1
1070
    44
1040
1.0
1070
    74
1070
     0
1000
MTEXTEND
  0
ENDSEC
  0
SECTION
  2
OBJECTS
  0
DICTIONARY
  5
C
330
0
100
AcDbDictionary
281
     1
  3
ACAD_CIP_PREVIOUS_PRODUCT_INFO
350
29AB4
  3
ACAD_COLOR
350
29A95
  3
ACAD_GROUP
350
D
  3
ACAD_LAYOUT
350
165D1
  3
ACAD_MATERIAL
350
29A63
  3
ACAD_MLEADERSTYLE
350
29AAA
  3
ACAD_MLINESTYLE
350
E
  3
ACAD_PLOTSETTINGS
350
165D2
  3
ACAD_PLOTSTYLENAME
350
165CF
  3
ACAD_SCALELIST
350
29A98
  3
ACAD_TABLESTYLE
350
29A96
  3
ACAD_VISUALSTYLE
350
29A7C
  3
AcadDim
350
29021
  3
ACDB_RECOMPOSE_DATA
350
29AC0
  3
ACDBVARIABLEDICTIONARY
350
13521
  3
CONTENTDICTIONARY
350
138DD
  3
DWGPROPS
350
29AC1
  0
DICTIONARY
  5
29062
330
2
100
AcDbDictionary
280
     1
281
     1
  3
ACAD_LAYERFILTERS
360
29063
  0
XRECORD
  5
29AB4
102
{ACAD_REACTORS
330
C
102
}
330
C
100
AcDbXrecord
280
     1
300
ACDLT
300
2012
300
ACDLT_F_S
  0
DICTIONARY
  5
29A95
102
{ACAD_REACTORS
330
C
102
}
330
C
100
AcDbDictionary
281
     1
  0
DICTIONARY
  5
D
102
{ACAD_REACTORS
330
C
102
}
330
C
100
AcDbDictionary
281
     1
  0
DICTIONARY
  5
165D1
102
{ACAD_REACTORS
330
C
102
}
330
C
100
AcDbDictionary
281
     1
  3
Layout1
350
165D4
  3
Model
350
165D3
  0
DICTIONARY
  5
29A63
102
{ACAD_REACTORS
330
C
102
}
330
C
100
AcDbDictionary
281
     1
  3
ByBlock
350
29A6C
  3
ByLayer
350
29A64
  3
Global
350
29A74
  0
DICTIONARY
  5
29AAA
102
{ACAD_REACTORS
330
C
102
}
330
C
100
AcDbDictionary
281
     1
  3
Standard
350
29AAB
  0
DICTIONARY
  5
E
102
{ACAD_REACTORS
330
C
102
}
330
C
100
AcDbDictionary
281
     1
  3
STANDARD
350
1B
  0
DICTIONARY
  5
165D2
102
{ACAD_REACTORS
330
C
102
}
330
C
100
AcDbDictionary
281
     1
  0
ACDBDICTIONARYWDFLT
  5
165CF
102
{ACAD_REACTORS
330
C
102
}
330
C
100
AcDbDictionary
281
     1
  3
Normal
350
165D0
100
AcDbDictionaryWithDefault
340
165D0
  0
DICTIONARY
  5
29A98
102
{ACAD_REACTORS
330
C
102
}
330
C
100
AcDbDictionary
281
     1
  3
A0
350
29A99
  3
A1
350
29A9A
  3
A2
350
29A9B
  3
A3
350
29A9C
  3
A4
350
29A9D
  3
A5
350
29A9E
  3
A6
350
29A9F
  3
A7
350
29AA0
  3
A8
350
29AA1
  3
A9
350
29AA2
  3
B0
350
29AA3
  3
B1
350
29AA4
  3
B2
350
29AA5
  3
B3
350
29AA6
  3
B4
350
29AA7
  3
B5
350
29AA8
  3
B6
350
29AA9
  0
DICTIONARY
  5
29A96
102
{ACAD_REACTORS
330
C
102
}
330
C
100
AcDbDictionary
281
     1
  3
Standard
350
29A97
  0
DICTIONARY
  5
29A7C
102
{ACAD_REACTORS
330
C
102
}
330
C
100
AcDbDictionary
281
     1
  3
2dWireframe
350
29A82
  3
Basic
350
29A81
  3
Brighten
350
29A88
  3
ColorChange
350
29A8C
  3
Conceptual
350
29A85
  3
Dim
350
29A87
  3
EdgeColorOff
350
29A94
  3
Facepattern
350
29A8B
  3
Flat
350
29A7D
  3
FlatWithEdges
350
29A7E
  3
Gouraud
350
29A7F
  3
GouraudWithEdges
350
29A80
  3
Hidden
350
29A84
  3
JitterOff
350
29A92
  3
Linepattern
350
29A8A
  3
OverhangOff
350
29A93
  3
Realistic
350
29A86
  3
Shaded
350
29A91
  3
Shaded with edges
350
29A90
  3
Shades of Gray
350
29A8D
  3
Sketchy
350
29A8E
  3
Thicken
350
29A89
  3
Wireframe
350
29A83
  3
X-Ray
350
29A8F
  0
XRECORD
  5
29021
102
{ACAD_REACTORS
330
C
102
}
330
C
100
AcDbXrecord
280
     1
 90
   990106
  3

 60
     0
 61
     0
 62
     1
 63
     3
 64
     0
 65
     0
 66
     0
 67
     3
 68
     1
 69
     0
 70
     0
 71
     0
 72
     0
 40
0.0
170
     0
  0
XRECORD
  5
29AC0
102
{ACAD_REACTORS
330
C
102
}
330
C
100
AcDbXrecord
280
     1
 90
        1
330
29A97
  0
DICTIONARY
  5
13521
102
{ACAD_REACTORS
330
C
102
}
330
C
100
AcDbDictionary
281
     1
  3
CANNOSCALE
350
29AB7
  3
CMLEADERSTYLE
350
29AB6
  3
CTABLESTYLE
350
29AB5
  3
DIMASSOC
350
29AB9
  3
INDEXCTL
350
29AB8
  3
SORTENTS
350
13522
  3
XCLIPFRAME
350
29ABA
  0
DICTIONARY
  5
138DD
102
{ACAD_REACTORS
330
C
102
}
330
C
100
AcDbDictionary
281
     1
  0
XRECORD
  5
29AC1
102
{ACAD_REACTORS
330
C
102
}
330
C
100
AcDbXrecord
280
     1
  1
DWGPROPS COOKIE
  2

  3

  4

  6

  7

  8
skuo
  9

300
=
301
=
302
=
303
=
304
=
305
=
306
=
307
=
308
=
309
=
 40
2.836308946759259
 41
2449371.572584838
 42
2455873.620265267
  1

 90
        0
  0
DICTIONARY
  5
29063
102
{ACAD_REACTORS
330
29062
102
}
330
29062
100
AcDbDictionary
280
     1
281
     1
  3
mother brd
360
29064
  0
LAYOUT
  5
165D4
102
{ACAD_XDICTIONARY
360
29AC4
102
}
102
{ACAD_REACTORS
330
165D1
102
}
330
165D1
100
AcDbPlotSettings
  1

  2
Xerox DocuPrint P12
  4

  6

 40
0.0
 41
0.0
 42
0.0
 43
0.0
 44
0.0
 45
0.0
 46
0.0
 47
0.0
 48
0.0
 49
0.0
140
0.0
141
0.0
142
1.0
143
1.0
 70
   688
 72
     0
 73
     0
 74
     5
  7
monochrome.ctb
 75
    16
147
1.0
148
0.0
149
0.0
100
AcDbLayout
  1
Layout1
 70
     1
 71
     1
 10
0.0
 20
0.0
 11
12.0
 21
9.0
 12
0.0
 22
0.0
 32
0.0
 14
1.000000000000000E+20
 24
1.000000000000000E+20
 34
1.000000000000000E+20
 15
-1.000000000000000E+20
 25
-1.000000000000000E+20
 35
-1.000000000000000E+20
146
0.0
 13
0.0
 23
0.0
 33
0.0
 16
1.0
 26
0.0
 36
0.0
 17
0.0
 27
1.0
 37
0.0
 76
     0
330
15
  0
LAYOUT
  5
165D3
102
{ACAD_XDICTIONARY
360
29AC2
102
}
102
{ACAD_REACTORS
330
165D1
102
}
330
165D1
100
AcDbPlotSettings
  1

  2
\\E4511-ENG\pcl6
  4
User266
  6

 40
5.78908348083496
 41
5.789072036743164
 42
5.789093017578125
 43
5.789093017578125
 44
215.8999938964844
 45
279.3999938964844
 46
6.857999999999999
 47
11.938
 48
-0.8674666888319819
 49
1.327241720443987
140
6.632533311168018
141
10.92724172044399
142
1.0
143
1.0
 70
 11956
 72
     0
 73
     0
 74
     4
  7
monochrome.ctb
 75
    16
147
1.0
148
22.03365389633234
149
-33.71193969927729
100
AcDbLayout
  1
Model
 70
     1
 71
     0
 10
0.0
 20
0.0
 11
12.0
 21
9.0
 12
0.0
 22
0.0
 32
0.0
 14
0.0
 24
0.0
 34
0.0
 15
0.0
 25
0.0
 35
0.0
146
0.0
 13
0.0
 23
0.0
 33
0.0
 16
1.0
 26
0.0
 36
0.0
 17
0.0
 27
1.0
 37
0.0
 76
     0
330
18
331
29A61
  0
MATERIAL
  5
29A6C
102
{ACAD_XDICTIONARY
360
29A6D
102
}
102
{ACAD_REACTORS
330
29A63
102
}
330
29A63
100
AcDbMaterial
  1
ByBlock
 72
     0
 43
0.0208333333333333
 43
0.0
 43
0.0
 43
0.0
 43
0.0
 43
0.0208333333333333
 43
0.0
 43
0.0
 43
0.0
 43
0.0
 43
1.0
 43
0.0
 43
0.0
 43
0.0
 43
0.0
 43
1.0
 77
     0
 47
0.0208333333333333
 47
0.0
 47
0.0
 47
0.0
 47
0.0
 47
0.0208333333333333
 47
0.0
 47
0.0
 47
0.0
 47
0.0
 47
1.0
 47
0.0
 47
0.0
 47
0.0
 47
0.0
 47
1.0
171
     0
 49
0.0208333333333333
 49
0.0
 49
0.0
 49
0.0
 49
0.0
 49
0.0208333333333333
 49
0.0
 49
0.0
 49
0.0
 49
0.0
 49
1.0
 49
0.0
 49
0.0
 49
0.0
 49
0.0
 49
1.0
175
     0
142
0.0208333333333333
142
0.0
142
0.0
142
0.0
142
0.0
142
0.0208333333333333
142
0.0
142
0.0
142
0.0
142
0.0
142
1.0
142
0.0
142
0.0
142
0.0
142
0.0
142
1.0
179
     0
144
0.0208333333333333
144
0.0
144
0.0
144
0.0
144
0.0
144
0.0208333333333333
144
0.0
144
0.0
144
0.0
144
0.0
144
1.0
144
0.0
144
0.0
144
0.0
144
0.0
144
1.0
147
0.0208333333333333
147
0.0
147
0.0
147
0.0
147
0.0
147
0.0208333333333333
147
0.0
147
0.0
147
0.0
147
0.0
147
1.0
147
0.0
147
0.0
147
0.0
147
0.0
147
1.0
  0
MATERIAL
  5
29A64
102
{ACAD_XDICTIONARY
360
29A65
102
}
102
{ACAD_REACTORS
330
29A63
102
}
330
29A63
100
AcDbMaterial
  1
ByLayer
 72
     0
 43
0.0208333333333333
 43
0.0
 43
0.0
 43
0.0
 43
0.0
 43
0.0208333333333333
 43
0.0
 43
0.0
 43
0.0
 43
0.0
 43
1.0
 43
0.0
 43
0.0
 43
0.0
 43
0.0
 43
1.0
 77
     0
 47
0.0208333333333333
 47
0.0
 47
0.0
 47
0.0
 47
0.0
 47
0.0208333333333333
 47
0.0
 47
0.0
 47
0.0
 47
0.0
 47
1.0
 47
0.0
 47
0.0
 47
0.0
 47
0.0
 47
1.0
171
     0
 49
0.0208333333333333
 49
0.0
 49
0.0
 49
0.0
 49
0.0
 49
0.0208333333333333
 49
0.0
 49
0.0
 49
0.0
 49
0.0
 49
1.0
 49
0.0
 49
0.0
 49
0.0
 49
0.0
 49
1.0
175
     0
142
0.0208333333333333
142
0.0
142
0.0
142
0.0
142
0.0
142
0.0208333333333333
142
0.0
142
0.0
142
0.0
142
0.0
142
1.0
142
0.0
142
0.0
142
0.0
142
0.0
142
1.0
179
     0
144
0.0208333333333333
144
0.0
144
0.0
144
0.0
144
0.0
144
0.0208333333333333
144
0.0
144
0.0
144
0.0
144
0.0
144
1.0
144
0.0
144
0.0
144
0.0
144
0.0
144
1.0
147
0.0208333333333333
147
0.0
147
0.0
147
0.0
147
0.0
147
0.0208333333333333
147
0.0
147
0.0
147
0.0
147
0.0
147
1.0
147
0.0
147
0.0
147
0.0
147
0.0
147
1.0
  0
MATERIAL
  5
29A74
102
{ACAD_XDICTIONARY
360
29A75
102
}
102
{ACAD_REACTORS
330
29A63
102
}
330
29A63
100
AcDbMaterial
  1
Global
 72
     0
 43
0.0208333333333333
 43
0.0
 43
0.0
 43
0.0
 43
0.0
 43
0.0208333333333333
 43
0.0
 43
0.0
 43
0.0
 43
0.0
 43
1.0
 43
0.0
 43
0.0
 43
0.0
 43
0.0
 43
1.0
 77
     0
 47
0.0208333333333333
 47
0.0
 47
0.0
 47
0.0
 47
0.0
 47
0.0208333333333333
 47
0.0
 47
0.0
 47
0.0
 47
0.0
 47
1.0
 47
0.0
 47
0.0
 47
0.0
 47
0.0
 47
1.0
171
     0
 49
0.0208333333333333
 49
0.0
 49
0.0
 49
0.0
 49
0.0
 49
0.0208333333333333
 49
0.0
 49
0.0
 49
0.0
 49
0.0
 49
1.0
 49
0.0
 49
0.0
 49
0.0
 49
0.0
 49
1.0
175
     0
142
0.0208333333333333
142
0.0
142
0.0
142
0.0
142
0.0
142
0.0208333333333333
142
0.0
142
0.0
142
0.0
142
0.0
142
1.0
142
0.0
142
0.0
142
0.0
142
0.0
142
1.0
179
     0
144
0.0208333333333333
144
0.0
144
0.0
144
0.0
144
0.0
144
0.0208333333333333
144
0.0
144
0.0
144
0.0
144
0.0
144
1.0
144
0.0
144
0.0
144
0.0
144
0.0
144
1.0
147
0.0208333333333333
147
0.0
147
0.0
147
0.0
147
0.0
147
0.0208333333333333
147
0.0
147
0.0
147
0.0
147
0.0
147
1.0
147
0.0
147
0.0
147
0.0
147
0.0
147
1.0
  0
MLEADERSTYLE
  5
29AAB
102
{ACAD_XDICTIONARY
360
29ABE
102
}
102
{ACAD_REACTORS
330
29AAA
102
}
330
29AAA
100
AcDbMLeaderStyle
170
     2
171
     1
172
     0
 90
        2
 40
0.0
 41
0.0
173
     1
 91
-1056964608
340
12
 92
       -2
290
     1
 42
0.09
291
     1
 43
0.36
  3
Standard
 44
0.18
300

342
10
174
     1
178
     6
175
     1
176
     0
 93
-1056964608
 45
0.18
292
     0
297
     0
 46
0.18
 94
-1056964608
 47
1.0
 49
1.0
140
1.0
293
     1
141
0.0
294
     1
177
     0
142
1.0
295
     0
296
     0
143
0.125
1001
ACAD_MLEADERVER
1070
     2
  0
MLINESTYLE
  5
1B
102
{ACAD_REACTORS
330
E
102
}
330
E
100
AcDbMlineStyle
  2
STANDARD
 70
     0
  3

 62
     0
 51
90.0
 52
90.0
 71
     2
 49
0.5
 62
   256
  6
BYLAYER
 49
-0.5
 62
   256
  6
BYLAYER
  0
ACDBPLACEHOLDER
  5
165D0
102
{ACAD_REACTORS
330
165CF
102
}
330
165CF
  0
SCALE
  5
29A99
102
{ACAD_REACTORS
330
29A98
102
}
330
29A98
100
AcDbScale
 70
     0
300
1:1
140
1.0
141
1.0
290
     1
  0
SCALE
  5
29A9A
102
{ACAD_REACTORS
330
29A98
102
}
330
29A98
100
AcDbScale
 70
     0
300
1/128" = 1'-0"
140
0.0078125
141
12.0
290
     0
  0
SCALE
  5
29A9B
102
{ACAD_REACTORS
330
29A98
102
}
330
29A98
100
AcDbScale
 70
     0
300
1/64" = 1'-0"
140
0.015625
141
12.0
290
     0
  0
SCALE
  5
29A9C
102
{ACAD_REACTORS
330
29A98
102
}
330
29A98
100
AcDbScale
 70
     0
300
1/32" = 1'-0"
140
0.03125
141
12.0
290
     0
  0
SCALE
  5
29A9D
102
{ACAD_REACTORS
330
29A98
102
}
330
29A98
100
AcDbScale
 70
     0
300
1/16" = 1'-0"
140
0.0625
141
12.0
290
     0
  0
SCALE
  5
29A9E
102
{ACAD_REACTORS
330
29A98
102
}
330
29A98
100
AcDbScale
 70
     0
300
3/32" = 1'-0"
140
0.09375
141
12.0
290
     0
  0
SCALE
  5
29A9F
102
{ACAD_REACTORS
330
29A98
102
}
330
29A98
100
AcDbScale
 70
     0
300
1/8" = 1'-0"
140
0.125
141
12.0
290
     0
  0
SCALE
  5
29AA0
102
{ACAD_REACTORS
330
29A98
102
}
330
29A98
100
AcDbScale
 70
     0
300
3/16" = 1'-0"
140
0.1875
141
12.0
290
     0
  0
SCALE
  5
29AA1
102
{ACAD_REACTORS
330
29A98
102
}
330
29A98
100
AcDbScale
 70
     0
300
1/4" = 1'-0"
140
0.25
141
12.0
290
     0
  0
SCALE
  5
29AA2
102
{ACAD_REACTORS
330
29A98
102
}
330
29A98
100
AcDbScale
 70
     0
300
3/8" = 1'-0"
140
0.375
141
12.0
290
     0
  0
SCALE
  5
29AA3
102
{ACAD_REACTORS
330
29A98
102
}
330
29A98
100
AcDbScale
 70
     0
300
1/2" = 1'-0"
140
0.5
141
12.0
290
     0
  0
SCALE
  5
29AA4
102
{ACAD_REACTORS
330
29A98
102
}
330
29A98
100
AcDbScale
 70
     0
300
3/4" = 1'-0"
140
0.75
141
12.0
290
     0
  0
SCALE
  5
29AA5
102
{ACAD_REACTORS
330
29A98
102
}
330
29A98
100
AcDbScale
 70
     0
300
1" = 1'-0"
140
1.0
141
12.0
290
     0
  0
SCALE
  5
29AA6
102
{ACAD_REACTORS
330
29A98
102
}
330
29A98
100
AcDbScale
 70
     0
300
1-1/2" = 1'-0"
140
1.5
141
12.0
290
     0
  0
SCALE
  5
29AA7
102
{ACAD_REACTORS
330
29A98
102
}
330
29A98
100
AcDbScale
 70
     0
300
3" = 1'-0"
140
3.0
141
12.0
290
     0
  0
SCALE
  5
29AA8
102
{ACAD_REACTORS
330
29A98
102
}
330
29A98
100
AcDbScale
 70
     0
300
6" = 1'-0"
140
6.0
141
12.0
290
     0
  0
SCALE
  5
29AA9
102
{ACAD_REACTORS
330
29A98
102
}
330
29A98
100
AcDbScale
 70
     0
300
1'-0" = 1'-0"
140
12.0
141
12.0
290
     0
  0
TABLESTYLE
  5
29A97
102
{ACAD_XDICTIONARY
360
29ABC
102
}
102
{ACAD_REACTORS
330
29A96
102
}
330
29A96
100
AcDbTableStyle
  3
Standard
 70
     0
 71
     0
 40
0.06
 41
0.06
280
     0
281
     0
  7
STANDARD
140
0.18
170
     2
 62
     0
 63
     7
283
     0
274
    -2
284
     1
 64
     0
275
    -2
285
     1
 65
     0
276
    -2
286
     1
 66
     0
277
    -2
287
     1
 67
     0
278
    -2
288
     1
 68
     0
279
    -2
289
     1
 69
     0
  7
STANDARD
140
0.25
170
     5
 62
     0
 63
     7
283
     0
274
    -2
284
     1
 64
     0
275
    -2
285
     1
 65
     0
276
    -2
286
     1
 66
     0
277
    -2
287
     1
 67
     0
278
    -2
288
     1
 68
     0
279
    -2
289
     1
 69
     0
  7
STANDARD
140
0.18
170
     5
 62
     0
 63
     7
283
     0
274
    -2
284
     1
 64
     0
275
    -2
285
     1
 65
     0
276
    -2
286
     1
 66
     0
277
    -2
287
     1
 67
     0
278
    -2
288
     1
 68
     0
279
    -2
289
     1
 69
     0
  0
VISUALSTYLE
  5
29A82
102
{ACAD_XDICTIONARY
360
29AD3
102
}
102
{ACAD_REACTORS
330
29A7C
102
}
330
29A7C
100
AcDbVisualStyle
  2
2dWireframe
 70
     4
 71
     0
 72
     2
 73
     0
 90
        0
 40
-0.6
 41
-30.0
 62
     5
 63
     7
 74
     1
 91
        4
 64
     7
 65
   257
 75
     1
175
     1
 42
1.0
 92
        0
 66
   257
 43
1.0
 76
     1
 77
     6
 78
     2
 67
     7
 79
     5
170
     0
171
     0
290
     0
174
     0
 93
        1
 44
0.0
173
     0
291
     0
 45
0.0
1001
ACAD
1000
AcDbSavedByObjectVersion
1070
     0
  0
VISUALSTYLE
  5
29A81
102
{ACAD_XDICTIONARY
360
29AD1
102
}
102
{ACAD_REACTORS
330
29A7C
102
}
330
29A7C
100
AcDbVisualStyle
  2
Basic
 70
     7
 71
     1
 72
     0
 73
     1
 90
        0
 40
-0.6
 41
-30.0
 62
     5
 63
     7
 74
     0
 91
        4
 64
     7
 65
   257
 75
     1
175
     1
 42
1.0
 92
        8
 66
     7
 43
1.0
 76
     1
 77
     6
 78
     2
 67
     7
 79
     5
170
     0
171
     0
290
     0
174
     0
 93
        1
 44
0.0
173
     0
291
     1
 45
0.0
1001
ACAD
1000
AcDbSavedByObjectVersion
1070
     0
  0
VISUALSTYLE
  5
29A88
102
{ACAD_XDICTIONARY
360
29ADF
102
}
102
{ACAD_REACTORS
330
29A7C
102
}
330
29A7C
100
AcDbVisualStyle
  2
Brighten
 70
    12
 71
     2
 72
     2
 73
     0
 90
        0
 40
-0.6
 41
-30.0
 62
     5
 63
     7
 74
     1
 91
        4
 64
     7
 65
   257
 75
     1
175
     1
 42
1.0
 92
        8
 66
     7
 43
1.0
 76
     1
 77
     6
 78
     2
 67
     7
 79
     5
170
     0
171
     0
290
     0
174
     0
 93
        1
 44
50.0
173
     0
291
     1
 45
0.0
1001
ACAD
1000
AcDbSavedByObjectVersion
1070
     0
  0
VISUALSTYLE
  5
29A8C
102
{ACAD_XDICTIONARY
360
29AE7
102
}
102
{ACAD_REACTORS
330
29A7C
102
}
330
29A7C
100
AcDbVisualStyle
  2
ColorChange
 70
    16
 71
     2
 72
     2
 73
     3
 90
        0
 40
-0.6
 41
-30.0
 62
     5
 63
     8
 74
     1
 91
        4
 64
     7
 65
   257
 75
     1
175
     1
 42
1.0
 92
        8
 66
     8
 43
1.0
 76
     1
 77
     6
 78
     2
 67
     7
 79
     5
170
     0
171
     0
290
     0
174
     0
 93
        1
 44
0.0
173
     0
291
     1
 45
0.0
1001
ACAD
1000
AcDbSavedByObjectVersion
1070
     0
  0
VISUALSTYLE
  5
29A85
102
{ACAD_XDICTIONARY
360
29AD9
102
}
102
{ACAD_REACTORS
330
29A7C
102
}
330
29A7C
100
AcDbVisualStyle
  2
Conceptual
 70
     9
 71
     3
 72
     2
 73
     0
 90
        0
 40
-0.6
 41
-30.0
 62
     5
 63
     7
 74
     2
 91
        2
 64
     7
 65
   257
 75
     1
175
     1
 42
179.0
 92
        8
 66
     7
 43
1.0
 76
     1
 77
     6
 78
     2
 67
     7
 79
     3
170
     0
171
     0
290
     0
174
     0
 93
        1
 44
0.0
173
     0
291
     0
 45
0.0
1001
ACAD
1000
AcDbSavedByObjectVersion
1070
     0
  0
VISUALSTYLE
  5
29A87
102
{ACAD_XDICTIONARY
360
29ADD
102
}
102
{ACAD_REACTORS
330
29A7C
102
}
330
29A7C
100
AcDbVisualStyle
  2
Dim
 70
    11
 71
     2
 72
     2
 73
     0
 90
        0
 40
-0.6
 41
-30.0
 62
     5
 63
     7
 74
     1
 91
        4
 64
     7
 65
   257
 75
     1
175
     1
 42
1.0
 92
        8
 66
     7
 43
1.0
 76
     1
 77
     6
 78
     2
 67
     7
 79
     5
170
     0
171
     0
290
     0
174
     0
 93
        1
 44
-50.0
173
     0
291
     1
 45
0.0
1001
ACAD
1000
AcDbSavedByObjectVersion
1070
     0
  0
VISUALSTYLE
  5
29A94
102
{ACAD_XDICTIONARY
360
29AF7
102
}
102
{ACAD_REACTORS
330
29A7C
102
}
330
29A7C
100
AcDbVisualStyle
  2
EdgeColorOff
 70
    22
 71
     2
 72
     2
 73
     0
 90
        0
 40
-0.6
 41
-30.0
 62
     5
 63
     7
 74
     1
 91
        4
 64
     7
 65
   257
 75
     1
175
     1
 42
1.0
 92
        8
 66
     7
 43
1.0
 76
     1
 77
     6
 78
     2
 67
     7
 79
     5
170
     0
171
     0
290
     0
174
     0
 93
        1
 44
0.0
173
     0
291
     1
 45
0.0
1001
ACAD
1000
AcDbSavedByObjectVersion
1070
     0
  0
VISUALSTYLE
  5
29A8B
102
{ACAD_XDICTIONARY
360
29AE5
102
}
102
{ACAD_REACTORS
330
29A7C
102
}
330
29A7C
100
AcDbVisualStyle
  2
Facepattern
 70
    15
 71
     2
 72
     2
 73
     0
 90
        0
 40
-0.6
 41
-30.0
 62
     5
 63
     7
 74
     1
 91
        4
 64
     7
 65
   257
 75
     1
175
     1
 42
1.0
 92
        8
 66
     7
 43
1.0
 76
     1
 77
     6
 78
     2
 67
     7
 79
     5
170
     0
171
     0
290
     0
174
     0
 93
        1
 44
0.0
173
     0
291
     1
 45
0.0
1001
ACAD
1000
AcDbSavedByObjectVersion
1070
     0
  0
VISUALSTYLE
  5
29A7D
102
{ACAD_XDICTIONARY
360
29AC9
102
}
102
{ACAD_REACTORS
330
29A7C
102
}
330
29A7C
100
AcDbVisualStyle
  2
Flat
 70
     0
 71
     2
 72
     1
 73
     1
 90
        2
 40
-0.6
 41
30.0
 62
     5
 63
     7
 74
     0
 91
        0
 64
     7
 65
   257
 75
     1
175
     1
 42
1.0
 92
        8
 66
     7
 43
1.0
 76
     1
 77
     6
 78
     2
 67
     7
 79
     5
170
     0
171
     0
290
     0
174
     0
 93
       13
 44
0.0
173
     0
291
     1
 45
0.0
1001
ACAD
1000
AcDbSavedByObjectVersion
1070
     0
  0
VISUALSTYLE
  5
29A7E
102
{ACAD_XDICTIONARY
360
29ACB
102
}
102
{ACAD_REACTORS
330
29A7C
102
}
330
29A7C
100
AcDbVisualStyle
  2
FlatWithEdges
 70
     1
 71
     2
 72
     1
 73
     1
 90
        2
 40
-0.6
 41
30.0
 62
     5
 63
     7
 74
     1
 91
        0
 64
     7
 65
   257
 75
     1
175
     1
 42
1.0
 92
        0
 66
   257
 43
1.0
 76
     1
 77
     6
 78
     2
 67
     7
 79
     5
170
     0
171
     0
290
     0
174
     0
 93
       13
 44
0.0
173
     0
291
     1
 45
0.0
1001
ACAD
1000
AcDbSavedByObjectVersion
1070
     0
  0
VISUALSTYLE
  5
29A7F
102
{ACAD_XDICTIONARY
360
29ACD
102
}
102
{ACAD_REACTORS
330
29A7C
102
}
330
29A7C
100
AcDbVisualStyle
  2
Gouraud
 70
     2
 71
     2
 72
     2
 73
     1
 90
        2
 40
-0.6
 41
30.0
 62
     5
 63
     7
 74
     0
 91
        0
 64
     7
 65
   257
 75
     1
175
     1
 42
1.0
 92
        0
 66
     7
 43
1.0
 76
     1
 77
     6
 78
     2
 67
     7
 79
     5
170
     0
171
     0
290
     0
174
     0
 93
       13
 44
0.0
173
     0
291
     1
 45
0.0
1001
ACAD
1000
AcDbSavedByObjectVersion
1070
     0
  0
VISUALSTYLE
  5
29A80
102
{ACAD_XDICTIONARY
360
29ACF
102
}
102
{ACAD_REACTORS
330
29A7C
102
}
330
29A7C
100
AcDbVisualStyle
  2
GouraudWithEdges
 70
     3
 71
     2
 72
     2
 73
     1
 90
        2
 40
-0.6
 41
30.0
 62
     5
 63
     7
 74
     1
 91
        0
 64
     7
 65
   257
 75
     1
175
     1
 42
1.0
 92
        0
 66
   257
 43
1.0
 76
     1
 77
     6
 78
     2
 67
     7
 79
     5
170
     0
171
     0
290
     0
174
     0
 93
       13
 44
0.0
173
     0
291
     1
 45
0.0
1001
ACAD
1000
AcDbSavedByObjectVersion
1070
     0
  0
VISUALSTYLE
  5
29A84
102
{ACAD_XDICTIONARY
360
29AD7
102
}
102
{ACAD_REACTORS
330
29A7C
102
}
330
29A7C
100
AcDbVisualStyle
  2
Hidden
 70
     6
 71
     1
 72
     2
 73
     2
 90
        0
 40
-0.6
 41
-30.0
 62
     5
 63
     7
 74
     2
 91
        2
 64
     7
 65
   257
 75
     2
175
     1
 42
40.0
 92
        0
 66
   257
 43
1.0
 76
     1
 77
     6
 78
     2
 67
     7
 79
     3
170
     0
171
     0
290
     0
174
     0
 93
        1
 44
0.0
173
     0
291
     0
 45
0.0
1001
ACAD
1000
AcDbSavedByObjectVersion
1070
     0
  0
VISUALSTYLE
  5
29A92
102
{ACAD_XDICTIONARY
360
29AF3
102
}
102
{ACAD_REACTORS
330
29A7C
102
}
330
29A7C
100
AcDbVisualStyle
  2
JitterOff
 70
    20
 71
     2
 72
     2
 73
     0
 90
        0
 40
-0.6
 41
-30.0
 62
     5
 63
     7
 74
     1
 91
        4
 64
     7
 65
   257
 75
     1
175
     1
 42
1.0
 92
       10
 66
     7
 43
1.0
 76
     1
 77
     6
 78
     2
 67
     7
 79
     5
170
     0
171
     0
290
     0
174
     0
 93
        1
 44
0.0
173
     0
291
     1
 45
0.0
1001
ACAD
1000
AcDbSavedByObjectVersion
1070
     0
  0
VISUALSTYLE
  5
29A8A
102
{ACAD_XDICTIONARY
360
29AE3
102
}
102
{ACAD_REACTORS
330
29A7C
102
}
330
29A7C
100
AcDbVisualStyle
  2
Linepattern
 70
    14
 71
     2
 72
     2
 73
     0
 90
        0
 40
-0.6
 41
-30.0
 62
     5
 63
     7
 74
     1
 91
        4
 64
     7
 65
   257
 75
     7
175
     7
 42
1.0
 92
        8
 66
     7
 43
1.0
 76
     1
 77
     6
 78
     2
 67
     7
 79
     5
170
     0
171
     0
290
     0
174
     0
 93
        1
 44
0.0
173
     0
291
     1
 45
0.0
1001
ACAD
1000
AcDbSavedByObjectVersion
1070
     0
  0
VISUALSTYLE
  5
29A93
102
{ACAD_XDICTIONARY
360
29AF5
102
}
102
{ACAD_REACTORS
330
29A7C
102
}
330
29A7C
100
AcDbVisualStyle
  2
OverhangOff
 70
    21
 71
     2
 72
     2
 73
     0
 90
        0
 40
-0.6
 41
-30.0
 62
     5
 63
     7
 74
     1
 91
        4
 64
     7
 65
   257
 75
     1
175
     1
 42
1.0
 92
        9
 66
     7
 43
1.0
 76
     1
 77
     6
 78
     2
 67
     7
 79
     5
170
     0
171
     0
290
     0
174
     0
 93
        1
 44
0.0
173
     0
291
     1
 45
0.0
1001
ACAD
1000
AcDbSavedByObjectVersion
1070
     0
  0
VISUALSTYLE
  5
29A86
102
{ACAD_XDICTIONARY
360
29ADB
102
}
102
{ACAD_REACTORS
330
29A7C
102
}
330
29A7C
100
AcDbVisualStyle
  2
Realistic
 70
     8
 71
     2
 72
     3
 73
     0
 90
        2
 40
-0.6
 41
30.0
 62
     5
 63
     7
 74
     0
 91
        0
 64
     7
 65
   257
 75
     1
175
     1
 42
1.0
 92
        8
 66
   257
 43
1.0
 76
     1
 77
     6
 78
     2
 67
     7
 79
     3
170
     0
171
     0
290
     0
174
     0
 93
       13
 44
0.0
173
     0
291
     0
 45
0.0
1001
ACAD
1000
AcDbSavedByObjectVersion
1070
     0
  0
VISUALSTYLE
  5
29A91
102
{ACAD_XDICTIONARY
360
29AF1
102
}
102
{ACAD_REACTORS
330
29A7C
102
}
330
29A7C
100
AcDbVisualStyle
  2
Shaded
 70
    27
 71
     2
 72
     2
 73
     1
 90
        2
 40
-0.6
 41
30.0
 62
     5
 63
     7
 74
     0
 91
        4
 64
     7
 65
   257
 75
     1
175
     1
 42
1.0
 92
        8
 66
   257
 43
1.0
 76
     1
 77
     6
 78
     2
 67
     8
 79
     3
170
     0
171
     0
290
     0
174
     0
 93
        5
 44
0.0
173
     0
291
     0
 45
0.0
1001
ACAD
1000
AcDbSavedByObjectVersion
1070
     0
  0
VISUALSTYLE
  5
29A90
102
{ACAD_XDICTIONARY
360
29AEF
102
}
102
{ACAD_REACTORS
330
29A7C
102
}
330
29A7C
100
AcDbVisualStyle
  2
Shaded with edges
 70
    26
 71
     2
 72
     2
 73
     1
 90
        2
 40
-0.6
 41
30.0
 62
     5
 63
     7
 74
     1
 91
       10
 64
     7
 65
   257
 75
     2
175
     1
 42
1.0
 92
        8
 66
   257
 43
1.0
 76
     1
 77
     6
 78
     2
 67
     7
 79
     3
170
     0
171
     0
290
     0
174
     0
 93
        5
 44
0.0
173
     0
291
     0
 45
0.0
1001
ACAD
1000
AcDbSavedByObjectVersion
1070
     0
  0
VISUALSTYLE
  5
29A8D
102
{ACAD_XDICTIONARY
360
29AE9
102
}
102
{ACAD_REACTORS
330
29A7C
102
}
330
29A7C
100
AcDbVisualStyle
  2
Shades of Gray
 70
    23
 71
     2
 72
     2
 73
     3
 90
        0
 40
-0.6
 41
-30.0
 62
     5
 63
     7
 74
     2
 91
        2
 64
     7
 65
     7
 75
     1
175
     1
 42
40.0
 92
        8
 66
     7
 43
1.0
 76
     1
 77
     6
 78
     2
 67
     7
 79
     3
170
     0
171
     0
290
     0
174
     0
 93
        1
 44
0.0
173
     0
291
     0
 45
0.0
1001
ACAD
1000
AcDbSavedByObjectVersion
1070
     0
  0
VISUALSTYLE
  5
29A8E
102
{ACAD_XDICTIONARY
360
29AEB
102
}
102
{ACAD_REACTORS
330
29A7C
102
}
330
29A7C
100
AcDbVisualStyle
  2
Sketchy
 70
    24
 71
     1
 72
     2
 73
     2
 90
        0
 40
-0.6
 41
-30.0
 62
     5
 63
     7
 74
     2
 91
        2
 64
     7
 65
     7
 75
     1
175
     1
 42
40.0
 92
       11
 66
     7
 43
1.0
 76
     1
 77
     6
 78
     2
 67
     7
 79
     6
170
     0
171
     0
290
     0
174
     0
 93
        1
 44
0.0
173
     0
291
     0
 45
0.0
1001
ACAD
1000
AcDbSavedByObjectVersion
1070
     0
  0
VISUALSTYLE
  5
29A89
102
{ACAD_XDICTIONARY
360
29AE1
102
}
102
{ACAD_REACTORS
330
29A7C
102
}
330
29A7C
100
AcDbVisualStyle
  2
Thicken
 70
    13
 71
     2
 72
     2
 73
     0
 90
        0
 40
-0.6
 41
-30.0
 62
     5
 63
     7
 74
     1
 91
        4
 64
     7
 65
   257
 75
     1
175
     1
 42
1.0
 92
       12
 66
     7
 43
1.0
 76
     1
 77
     6
 78
     2
 67
     7
 79
     5
170
     0
171
     0
290
     0
174
     0
 93
        1
 44
0.0
173
     0
291
     1
 45
0.0
1001
ACAD
1000
AcDbSavedByObjectVersion
1070
     0
  0
VISUALSTYLE
  5
29A83
102
{ACAD_XDICTIONARY
360
29AD5
102
}
102
{ACAD_REACTORS
330
29A7C
102
}
330
29A7C
100
AcDbVisualStyle
  2
Wireframe
 70
     5
 71
     0
 72
     2
 73
     0
 90
        0
 40
-0.6
 41
-30.0
 62
     5
 63
     7
 74
     1
 91
        4
 64
     7
 65
   257
 75
     1
175
     1
 42
1.0
 92
        0
 66
   257
 43
1.0
 76
     1
 77
     6
 78
     2
 67
     7
 79
     3
170
     0
171
     0
290
     0
174
     0
 93
        1
 44
0.0
173
     0
291
     0
 45
0.0
1001
ACAD
1000
AcDbSavedByObjectVersion
1070
     0
  0
VISUALSTYLE
  5
29A8F
102
{ACAD_XDICTIONARY
360
29AED
102
}
102
{ACAD_REACTORS
330
29A7C
102
}
330
29A7C
100
AcDbVisualStyle
  2
X-Ray
 70
    25
 71
     2
 72
     2
 73
     1
 90
        1
 40
0.5
 41
-30.0
 62
     5
 63
     7
 74
     1
 91
        0
 64
     7
 65
   257
 75
     1
175
     1
 42
1.0
 92
        8
 66
     7
 43
1.0
 76
     1
 77
     6
 78
     2
 67
     7
 79
     3
170
     0
171
     0
290
     0
174
     0
 93
       13
 44
0.0
173
     0
291
     0
 45
0.0
1001
ACAD
1000
AcDbSavedByObjectVersion
1070
     0
  0
DICTIONARYVAR
  5
29AB7
102
{ACAD_REACTORS
330
13521
102
}
330
13521
100
DictionaryVariables
280
     0
  1
1:1
  0
DICTIONARYVAR
  5
29AB6
102
{ACAD_REACTORS
330
13521
102
}
330
13521
100
DictionaryVariables
280
     0
  1
STANDARD
  0
DICTIONARYVAR
  5
29AB5
102
{ACAD_REACTORS
330
13521
102
}
330
13521
100
DictionaryVariables
280
     0
  1
STANDARD
  0
DICTIONARYVAR
  5
29AB9
102
{ACAD_REACTORS
330
13521
102
}
330
13521
100
DictionaryVariables
280
     0
  1
1
  0
DICTIONARYVAR
  5
29AB8
102
{ACAD_REACTORS
330
13521
102
}
330
13521
100
DictionaryVariables
280
     0
  1
0
  0
DICTIONARYVAR
  5
13522
102
{ACAD_REACTORS
330
13521
102
}
330
13521
100
DictionaryVariables
280
     0
  1
96
  0
DICTIONARYVAR
  5
29ABA
102
{ACAD_REACTORS
330
13521
102
}
330
13521
100
DictionaryVariables
280
     0
  1
2
  0
XRECORD
  5
29064
102
{ACAD_REACTORS
330
29063
102
}
330
29063
100
AcDbXrecord
280
     1
  1
mother brd
  1
new mother brd
  1
*
  1
*
 70
     0
  1
*
  1
*
  0
DICTIONARY
  5
29AC4
330
165D4
100
AcDbDictionary
280
     1
281
     1
  3
ACAD_XREC_ROUNDTRIP
360
29AC5
  0
DICTIONARY
  5
29AC2
330
165D3
100
AcDbDictionary
280
     1
281
     1
  3
ACAD_XREC_ROUNDTRIP
360
29AC3
  0
DICTIONARY
  5
29A6D
330
29A6C
100
AcDbDictionary
280
     1
281
     1
  3
ACAD_XREC_ROUNDTRIP
360
29AC7
  3
BUMPTILE
360
29A6F
  3
DIFFUSETILE
360
29A6E
  3
OPACITYTILE
360
29A72
  3
REFLECTIONTILE
360
29A71
  3
REFRACTIONTILE
360
29A73
  3
SPECULARTILE
360
29A70
  0
DICTIONARY
  5
29A65
330
29A64
100
AcDbDictionary
280
     1
281
     1
  3
ACAD_XREC_ROUNDTRIP
360
29AC6
  3
BUMPTILE
360
29A67
  3
DIFFUSETILE
360
29A66
  3
OPACITYTILE
360
29A6A
  3
REFLECTIONTILE
360
29A69
  3
REFRACTIONTILE
360
29A6B
  3
SPECULARTILE
360
29A68
  0
DICTIONARY
  5
29A75
330
29A74
100
AcDbDictionary
280
     1
281
     1
  3
ACAD_XREC_ROUNDTRIP
360
29AC8
  3
BUMPTILE
360
29A77
  3
DIFFUSETILE
360
29A76
  3
OPACITYTILE
360
29A7A
  3
REFLECTIONTILE
360
29A79
  3
REFRACTIONTILE
360
29A7B
  3
SPECULARTILE
360
29A78
  0
DICTIONARY
  5
29ABE
330
29AAB
100
AcDbDictionary
280
     1
281
     1
  3
ACAD_XREC_ROUNDTRIP
360
29ABF
  0
DICTIONARY
  5
29ABC
330
29A97
100
AcDbDictionary
280
     1
281
     1
  3
ACAD_ROUNDTRIP_2008_TABLESTYLE_CELLSTYLEMAP
360
29ABD
  3
ACAD_XREC_ROUNDTRIP
360
29AF9
  0
DICTIONARY
  5
29AD3
330
29A82
100
AcDbDictionary
280
     1
281
     1
  3
ACAD_XREC_ROUNDTRIP
360
29AD4
  0
DICTIONARY
  5
29AD1
330
29A81
100
AcDbDictionary
280
     1
281
     1
  3
ACAD_XREC_ROUNDTRIP
360
29AD2
  0
DICTIONARY
  5
29ADF
330
29A88
100
AcDbDictionary
280
     1
281
     1
  3
ACAD_XREC_ROUNDTRIP
360
29AE0
  0
DICTIONARY
  5
29AE7
330
29A8C
100
AcDbDictionary
280
     1
281
     1
  3
ACAD_XREC_ROUNDTRIP
360
29AE8
  0
DICTIONARY
  5
29AD9
330
29A85
100
AcDbDictionary
280
     1
281
     1
  3
ACAD_XREC_ROUNDTRIP
360
29ADA
  0
DICTIONARY
  5
29ADD
330
29A87
100
AcDbDictionary
280
     1
281
     1
  3
ACAD_XREC_ROUNDTRIP
360
29ADE
  0
DICTIONARY
  5
29AF7
330
29A94
100
AcDbDictionary
280
     1
281
     1
  3
ACAD_XREC_ROUNDTRIP
360
29AF8
  0
DICTIONARY
  5
29AE5
330
29A8B
100
AcDbDictionary
280
     1
281
     1
  3
ACAD_XREC_ROUNDTRIP
360
29AE6
  0
DICTIONARY
  5
29AC9
330
29A7D
100
AcDbDictionary
280
     1
281
     1
  3
ACAD_XREC_ROUNDTRIP
360
29ACA
  0
DICTIONARY
  5
29ACB
330
29A7E
100
AcDbDictionary
280
     1
281
     1
  3
ACAD_XREC_ROUNDTRIP
360
29ACC
  0
DICTIONARY
  5
29ACD
330
29A7F
100
AcDbDictionary
280
     1
281
     1
  3
ACAD_XREC_ROUNDTRIP
360
29ACE
  0
DICTIONARY
  5
29ACF
330
29A80
100
AcDbDictionary
280
     1
281
     1
  3
ACAD_XREC_ROUNDTRIP
360
29AD0
  0
DICTIONARY
  5
29AD7
330
29A84
100
AcDbDictionary
280
     1
281
     1
  3
ACAD_XREC_ROUNDTRIP
360
29AD8
  0
DICTIONARY
  5
29AF3
330
29A92
100
AcDbDictionary
280
     1
281
     1
  3
ACAD_XREC_ROUNDTRIP
360
29AF4
  0
DICTIONARY
  5
29AE3
330
29A8A
100
AcDbDictionary
280
     1
281
     1
  3
ACAD_XREC_ROUNDTRIP
360
29AE4
  0
DICTIONARY
  5
29AF5
330
29A93
100
AcDbDictionary
280
     1
281
     1
  3
ACAD_XREC_ROUNDTRIP
360
29AF6
  0
DICTIONARY
  5
29ADB
330
29A86
100
AcDbDictionary
280
     1
281
     1
  3
ACAD_XREC_ROUNDTRIP
360
29ADC
  0
DICTIONARY
  5
29AF1
330
29A91
100
AcDbDictionary
280
     1
281
     1
  3
ACAD_XREC_ROUNDTRIP
360
29AF2
  0
DICTIONARY
  5
29AEF
330
29A90
100
AcDbDictionary
280
     1
281
     1
  3
ACAD_XREC_ROUNDTRIP
360
29AF0
  0
DICTIONARY
  5
29AE9
330
29A8D
100
AcDbDictionary
280
     1
281
     1
  3
ACAD_XREC_ROUNDTRIP
360
29AEA
  0
DICTIONARY
  5
29AEB
330
29A8E
100
AcDbDictionary
280
     1
281
     1
  3
ACAD_XREC_ROUNDTRIP
360
29AEC
  0
DICTIONARY
  5
29AE1
330
29A89
100
AcDbDictionary
280
     1
281
     1
  3
ACAD_XREC_ROUNDTRIP
360
29AE2
  0
DICTIONARY
  5
29AD5
330
29A83
100
AcDbDictionary
280
     1
281
     1
  3
ACAD_XREC_ROUNDTRIP
360
29AD6
  0
DICTIONARY
  5
29AED
330
29A8F
100
AcDbDictionary
280
     1
281
     1
  3
ACAD_XREC_ROUNDTRIP
360
29AEE
  0
XRECORD
  5
29AC5
102
{ACAD_REACTORS
330
29AC4
102
}
330
29AC4
100
AcDbXrecord
280
     1
102
SHADEPLOT
 70
     0
102
SHADEPLOTRESLEVEL
 70
     2
102
SHADEPLOTCUSTOMDPI
 70
   300
  0
XRECORD
  5
29AC3
102
{ACAD_REACTORS
330
29AC2
102
}
330
29AC2
100
AcDbXrecord
280
     1
102
SHADEPLOT
 70
     0
102
SHADEPLOTRESLEVEL
 70
     2
102
SHADEPLOTCUSTOMDPI
 70
   300
  0
XRECORD
  5
29AC7
102
{ACAD_REACTORS
330
29A6D
102
}
330
29A6D
100
AcDbXrecord
280
     1
102
MATERIAL
148
0.0
149
0.0
149
0.0
 93
        0
 94
      127
282
     0
 72
     0
 77
     0
171
     0
175
     0
179
     0
273
     0
  0
XRECORD
  5
29A6F
102
{ACAD_REACTORS
330
29A6D
102
}
330
29A6D
100
AcDbXrecord
280
     1
270
     1
271
     1
  0
XRECORD
  5
29A6E
102
{ACAD_REACTORS
330
29A6D
102
}
330
29A6D
100
AcDbXrecord
280
     1
270
     1
271
     1
  0
XRECORD
  5
29A72
102
{ACAD_REACTORS
330
29A6D
102
}
330
29A6D
100
AcDbXrecord
280
     1
270
     1
271
     1
  0
XRECORD
  5
29A71
102
{ACAD_REACTORS
330
29A6D
102
}
330
29A6D
100
AcDbXrecord
280
     1
270
     1
271
     1
  0
XRECORD
  5
29A73
102
{ACAD_REACTORS
330
29A6D
102
}
330
29A6D
100
AcDbXrecord
280
     1
270
     1
271
     1
  0
XRECORD
  5
29A70
102
{ACAD_REACTORS
330
29A6D
102
}
330
29A6D
100
AcDbXrecord
280
     1
270
     1
271
     1
  0
XRECORD
  5
29AC6
102
{ACAD_REACTORS
330
29A65
102
}
330
29A65
100
AcDbXrecord
280
     1
102
MATERIAL
148
0.0
149
0.0
149
0.0
 93
        0
 94
      127
282
     0
 72
     0
 77
     0
171
     0
175
     0
179
     0
273
     0
  0
XRECORD
  5
29A67
102
{ACAD_REACTORS
330
29A65
102
}
330
29A65
100
AcDbXrecord
280
     1
270
     1
271
     1
  0
XRECORD
  5
29A66
102
{ACAD_REACTORS
330
29A65
102
}
330
29A65
100
AcDbXrecord
280
     1
270
     1
271
     1
  0
XRECORD
  5
29A6A
102
{ACAD_REACTORS
330
29A65
102
}
330
29A65
100
AcDbXrecord
280
     1
270
     1
271
     1
  0
XRECORD
  5
29A69
102
{ACAD_REACTORS
330
29A65
102
}
330
29A65
100
AcDbXrecord
280
     1
270
     1
271
     1
  0
XRECORD
  5
29A6B
102
{ACAD_REACTORS
330
29A65
102
}
330
29A65
100
AcDbXrecord
280
     1
270
     1
271
     1
  0
XRECORD
  5
29A68
102
{ACAD_REACTORS
330
29A65
102
}
330
29A65
100
AcDbXrecord
280
     1
270
     1
271
     1
  0
XRECORD
  5
29AC8
102
{ACAD_REACTORS
330
29A75
102
}
330
29A75
100
AcDbXrecord
280
     1
102
MATERIAL
148
0.0
149
0.0
149
0.0
 93
        0
 94
      127
282
     0
 72
     0
 77
     0
171
     0
175
     0
179
     0
273
     0
  0
XRECORD
  5
29A77
102
{ACAD_REACTORS
330
29A75
102
}
330
29A75
100
AcDbXrecord
280
     1
270
     1
271
     1
  0
XRECORD
  5
29A76
102
{ACAD_REACTORS
330
29A75
102
}
330
29A75
100
AcDbXrecord
280
     1
270
     1
271
     1
  0
XRECORD
  5
29A7A
102
{ACAD_REACTORS
330
29A75
102
}
330
29A75
100
AcDbXrecord
280
     1
270
     1
271
     1
  0
XRECORD
  5
29A79
102
{ACAD_REACTORS
330
29A75
102
}
330
29A75
100
AcDbXrecord
280
     1
270
     1
271
     1
  0
XRECORD
  5
29A7B
102
{ACAD_REACTORS
330
29A75
102
}
330
29A75
100
AcDbXrecord
280
     1
270
     1
271
     1
  0
XRECORD
  5
29A78
102
{ACAD_REACTORS
330
29A75
102
}
330
29A75
100
AcDbXrecord
280
     1
270
     1
271
     1
  0
XRECORD
  5
29ABF
102
{ACAD_REACTORS
330
29ABE
102
}
330
29ABE
100
AcDbXrecord
280
     1
102
ACAD_ROUNDTRIP_2012_MLEADER_STYLE
298
     1
  0
CELLSTYLEMAP
  5
29ABD
102
{ACAD_REACTORS
330
29ABC
102
}
330
29ABC
100
AcDbCellStyleMap
 90
        3
300
CELLSTYLE
  1
TABLEFORMAT_BEGIN
 90
        5
170
     1
 91
        0
 92
    32768
 62
   257
 93
        1
300
CONTENTFORMAT
  1
CONTENTFORMAT_BEGIN
 90
        0
 91
        0
 92
      512
 93
        0
300

 40
0.0
140
1.0
 94
        5
 62
     0
340
10
144
0.25
309
CONTENTFORMAT_END
171
     0
 94
        0
309
TABLEFORMAT_END
  1
CELLSTYLE_BEGIN
 90
        1
 91
        1
300
_TITLE
309
CELLSTYLE_END
300
CELLSTYLE
  1
TABLEFORMAT_BEGIN
 90
        5
170
     1
 91
        0
 92
        0
 62
   257
 93
        1
300
CONTENTFORMAT
  1
CONTENTFORMAT_BEGIN
 90
        0
 91
        0
 92
      512
 93
        0
300

 40
0.0
140
1.0
 94
        5
 62
     0
340
10
144
0.18
309
CONTENTFORMAT_END
171
     0
 94
        0
309
TABLEFORMAT_END
  1
CELLSTYLE_BEGIN
 90
        2
 91
        1
300
_HEADER
309
CELLSTYLE_END
300
CELLSTYLE
  1
TABLEFORMAT_BEGIN
 90
        5
170
     1
 91
        0
 92
        0
 62
   257
 93
        1
300
CONTENTFORMAT
  1
CONTENTFORMAT_BEGIN
 90
        0
 91
        0
 92
      512
 93
        0
300

 40
0.0
140
1.0
 94
        2
 62
     0
340
10
144
0.18
309
CONTENTFORMAT_END
171
     0
 94
        0
309
TABLEFORMAT_END
  1
CELLSTYLE_BEGIN
 90
        3
 91
        2
300
_DATA
309
CELLSTYLE_END
  0
XRECORD
  5
29AF9
102
{ACAD_REACTORS
330
29ABC
102
}
330
29ABC
100
AcDbXrecord
280
     1
102
ACAD_ROUNDTRIP_PRE2007_TABLESTYLE
 90
      512
 91
        0
  1

 92
      512
 93
        0
  2

 94
      512
 95
        0
  3

  0
XRECORD
  5
29AD4
102
{ACAD_REACTORS
330
29AD3
102
}
330
29AD3
100
AcDbXrecord
280
     1
102
RTVSPropertyOp0
 70
     1
102
RTVSPropertyOp1
 70
     1
102
RTVSPropertyOp2
 70
     1
102
RTVSPropertyOp3
 70
     1
102
RTVSPropertyOp4
 70
     1
102
RTVSPropertyOp5
 70
     1
102
RTVSPropertyOp6
 70
     1
102
RTVSPropertyOp7
 70
     1
102
RTVSPropertyOp8
 70
     1
102
RTVSPropertyOp9
 70
     1
102
RTVSPropertyOp10
 70
     1
102
RTVSPropertyOp11
 70
     1
102
RTVSPropertyOp12
 70
     1
102
RTVSPropertyOp13
 70
     1
102
RTVSPropertyOp14
 70
     1
102
RTVSPropertyOp15
 70
     1
102
RTVSPropertyOp16
 70
     1
102
RTVSPropertyOp17
 70
     1
102
RTVSPropertyOp18
 70
     1
102
RTVSPropertyOp19
 70
     1
102
RTVSPropertyOp20
 70
     1
102
RTVSPropertyOp21
 70
     1
102
RTVSPropertyOp22
 70
     1
102
RTVSPropertyOp23
 70
     1
102
RTVSPropertyOp24
 70
     1
102
RTVSPropertyOp25
 70
     1
102
RTVSPropertyOp26
 70
     1
102
RTVSPropertyOp27
 70
     1
102
RTVSPropertyOp28
 70
     1
102
RTVSPropertyOp29
 70
     1
102
RTVSPropertyOp30
 70
     1
102
RTVSPropertyOp31
 70
     1
102
RTVSPropertyOp32
 70
     1
  0
XRECORD
  5
29AD2
102
{ACAD_REACTORS
330
29AD1
102
}
330
29AD1
100
AcDbXrecord
280
     1
102
RTVSPropertyOp0
 70
     1
102
RTVSPropertyOp1
 70
     1
102
RTVSPropertyOp2
 70
     1
102
RTVSPropertyOp3
 70
     1
102
RTVSPropertyOp4
 70
     1
102
RTVSPropertyOp5
 70
     1
102
RTVSPropertyOp6
 70
     1
102
RTVSPropertyOp7
 70
     1
102
RTVSPropertyOp8
 70
     1
102
RTVSPropertyOp9
 70
     1
102
RTVSPropertyOp10
 70
     1
102
RTVSPropertyOp11
 70
     1
102
RTVSPropertyOp12
 70
     1
102
RTVSPropertyOp13
 70
     1
102
RTVSPropertyOp14
 70
     1
102
RTVSPropertyOp15
 70
     1
102
RTVSPropertyOp16
 70
     1
102
RTVSPropertyOp17
 70
     1
102
RTVSPropertyOp18
 70
     1
102
RTVSPropertyOp19
 70
     1
102
RTVSPropertyOp20
 70
     1
102
RTVSPropertyOp21
 70
     1
102
RTVSPropertyOp22
 70
     1
102
RTVSPropertyOp23
 70
     1
102
RTVSPropertyOp24
 70
     1
102
RTVSPropertyOp25
 70
     1
102
RTVSPropertyOp26
 70
     1
102
RTVSPropertyOp27
 70
     1
102
RTVSPropertyOp28
 70
     1
102
RTVSPropertyOp29
 70
     1
102
RTVSPropertyOp30
 70
     1
102
RTVSPropertyOp31
 70
     1
102
RTVSPropertyOp32
 70
     1
  0
XRECORD
  5
29AE0
102
{ACAD_REACTORS
330
29ADF
102
}
330
29ADF
100
AcDbXrecord
280
     1
102
RTVSPropertyOp0
 70
     1
102
RTVSPropertyOp1
 70
     1
102
RTVSPropertyOp2
 70
     1
102
RTVSPropertyOp3
 70
     1
102
RTVSPropertyOp4
 70
     1
102
RTVSPropertyOp5
 70
     1
102
RTVSPropertyOp6
 70
     1
102
RTVSPropertyOp7
 70
     1
102
RTVSPropertyOp8
 70
     1
102
RTVSPropertyOp9
 70
     1
102
RTVSPropertyOp10
 70
     1
102
RTVSPropertyOp11
 70
     1
102
RTVSPropertyOp12
 70
     1
102
RTVSPropertyOp13
 70
     1
102
RTVSPropertyOp14
 70
     1
102
RTVSPropertyOp15
 70
     1
102
RTVSPropertyOp16
 70
     1
102
RTVSPropertyOp17
 70
     1
102
RTVSPropertyOp18
 70
     1
102
RTVSPropertyOp19
 70
     1
102
RTVSPropertyOp20
 70
     1
102
RTVSPropertyOp21
 70
     1
102
RTVSPropertyOp22
 70
     1
102
RTVSPropertyOp23
 70
     1
102
RTVSPropertyOp24
 70
     1
102
RTVSPropertyOp25
 70
     1
102
RTVSPropertyOp26
 70
     1
102
RTVSPropertyOp27
 70
     1
102
RTVSPropertyOp28
 70
     1
102
RTVSPropertyOp29
 70
     1
102
RTVSPropertyOp30
 70
     1
102
RTVSPropertyOp31
 70
     1
102
RTVSPropertyOp32
 70
     1
  0
XRECORD
  5
29AE8
102
{ACAD_REACTORS
330
29AE7
102
}
330
29AE7
100
AcDbXrecord
280
     1
102
RTVSPropertyOp0
 70
     1
102
RTVSPropertyOp1
 70
     1
102
RTVSPropertyOp2
 70
     1
102
RTVSPropertyOp3
 70
     1
102
RTVSPropertyOp4
 70
     1
102
RTVSPropertyOp5
 70
     1
102
RTVSPropertyOp6
 70
     1
102
RTVSPropertyOp7
 70
     1
102
RTVSPropertyOp8
 70
     1
102
RTVSPropertyOp9
 70
     1
102
RTVSPropertyOp10
 70
     1
102
RTVSPropertyOp11
 70
     1
102
RTVSPropertyOp12
 70
     1
102
RTVSPropertyOp13
 70
     1
102
RTVSPropertyOp14
 70
     1
102
RTVSPropertyOp15
 70
     1
102
RTVSPropertyOp16
 70
     1
102
RTVSPropertyOp17
 70
     1
102
RTVSPropertyOp18
 70
     1
102
RTVSPropertyOp19
 70
     1
102
RTVSPropertyOp20
 70
     1
102
RTVSPropertyOp21
 70
     1
102
RTVSPropertyOp22
 70
     1
102
RTVSPropertyOp23
 70
     1
102
RTVSPropertyOp24
 70
     1
102
RTVSPropertyOp25
 70
     1
102
RTVSPropertyOp26
 70
     1
102
RTVSPropertyOp27
 70
     1
102
RTVSPropertyOp28
 70
     1
102
RTVSPropertyOp29
 70
     1
102
RTVSPropertyOp30
 70
     1
102
RTVSPropertyOp31
 70
     1
102
RTVSPropertyOp32
 70
     1
  0
XRECORD
  5
29ADA
102
{ACAD_REACTORS
330
29AD9
102
}
330
29AD9
100
AcDbXrecord
280
     1
102
RTVSPropertyOp0
 70
     1
102
RTVSPropertyOp1
 70
     1
102
RTVSPropertyOp2
 70
     1
102
RTVSPropertyOp3
 70
     1
102
RTVSPropertyOp4
 70
     1
102
RTVSPropertyOp5
 70
     1
102
RTVSPropertyOp6
 70
     1
102
RTVSPropertyOp7
 70
     1
102
RTVSPropertyOp8
 70
     1
102
RTVSPropertyOp9
 70
     1
102
RTVSPropertyOp10
 70
     1
102
RTVSPropertyOp11
 70
     1
102
RTVSPropertyOp12
 70
     1
102
RTVSPropertyOp13
 70
     1
102
RTVSPropertyOp14
 70
     1
102
RTVSPropertyOp15
 70
     1
102
RTVSPropertyOp16
 70
     1
102
RTVSPropertyOp17
 70
     1
102
RTVSPropertyOp18
 70
     1
102
RTVSPropertyOp19
 70
     1
102
RTVSPropertyOp20
 70
     1
102
RTVSPropertyOp21
 70
     1
102
RTVSPropertyOp22
 70
     1
102
RTVSPropertyOp23
 70
     1
102
RTVSPropertyOp24
 70
     1
102
RTVSPropertyOp25
 70
     1
102
RTVSPropertyOp26
 70
     1
102
RTVSPropertyOp27
 70
     1
102
RTVSPropertyOp28
 70
     1
102
RTVSPropertyOp29
 70
     1
102
RTVSPropertyOp30
 70
     1
102
RTVSPropertyOp31
 70
     1
102
RTVSPropertyOp32
 70
     1
  0
XRECORD
  5
29ADE
102
{ACAD_REACTORS
330
29ADD
102
}
330
29ADD
100
AcDbXrecord
280
     1
102
RTVSPropertyOp0
 70
     1
102
RTVSPropertyOp1
 70
     1
102
RTVSPropertyOp2
 70
     1
102
RTVSPropertyOp3
 70
     1
102
RTVSPropertyOp4
 70
     1
102
RTVSPropertyOp5
 70
     1
102
RTVSPropertyOp6
 70
     1
102
RTVSPropertyOp7
 70
     1
102
RTVSPropertyOp8
 70
     1
102
RTVSPropertyOp9
 70
     1
102
RTVSPropertyOp10
 70
     1
102
RTVSPropertyOp11
 70
     1
102
RTVSPropertyOp12
 70
     1
102
RTVSPropertyOp13
 70
     1
102
RTVSPropertyOp14
 70
     1
102
RTVSPropertyOp15
 70
     1
102
RTVSPropertyOp16
 70
     1
102
RTVSPropertyOp17
 70
     1
102
RTVSPropertyOp18
 70
     1
102
RTVSPropertyOp19
 70
     1
102
RTVSPropertyOp20
 70
     1
102
RTVSPropertyOp21
 70
     1
102
RTVSPropertyOp22
 70
     1
102
RTVSPropertyOp23
 70
     1
102
RTVSPropertyOp24
 70
     1
102
RTVSPropertyOp25
 70
     1
102
RTVSPropertyOp26
 70
     1
102
RTVSPropertyOp27
 70
     1
102
RTVSPropertyOp28
 70
     1
102
RTVSPropertyOp29
 70
     1
102
RTVSPropertyOp30
 70
     1
102
RTVSPropertyOp31
 70
     1
102
RTVSPropertyOp32
 70
     1
  0
XRECORD
  5
29AF8
102
{ACAD_REACTORS
330
29AF7
102
}
330
29AF7
100
AcDbXrecord
280
     1
102
RTVSPropertyOp0
 70
     0
102
RTVSPropertyOp1
 70
     0
102
RTVSPropertyOp2
 70
     0
102
RTVSPropertyOp3
 70
     0
102
RTVSPropertyOp4
 70
     0
102
RTVSPropertyOp5
 70
     0
102
RTVSPropertyOp6
 70
     0
102
RTVSPropertyOp7
 70
     0
102
RTVSPropertyOp8
 70
     0
102
RTVSPropertyOp9
 70
     0
102
RTVSPropertyOp10
 70
     0
102
RTVSPropertyOp11
 70
     0
102
RTVSPropertyOp12
 70
     0
102
RTVSPropertyOp13
 70
     0
102
RTVSPropertyOp14
 70
     2
102
RTVSPropertyOp15
 70
     0
102
RTVSPropertyOp16
 70
     0
102
RTVSPropertyOp17
 70
     0
102
RTVSPropertyOp18
 70
     0
102
RTVSPropertyOp19
 70
     0
102
RTVSPropertyOp20
 70
     0
102
RTVSPropertyOp21
 70
     0
102
RTVSPropertyOp22
 70
     0
102
RTVSPropertyOp23
 70
     0
102
RTVSPropertyOp24
 70
     0
102
RTVSPropertyOp25
 70
     0
102
RTVSPropertyOp26
 70
     0
102
RTVSPropertyOp27
 70
     0
102
RTVSPropertyOp28
 70
     0
102
RTVSPropertyOp29
 70
     0
102
RTVSPropertyOp30
 70
     0
102
RTVSPropertyOp31
 70
     0
102
RTVSPropertyOp32
 70
     0
  0
XRECORD
  5
29AE6
102
{ACAD_REACTORS
330
29AE5
102
}
330
29AE5
100
AcDbXrecord
280
     1
102
RTVSPropertyOp0
 70
     1
102
RTVSPropertyOp1
 70
     1
102
RTVSPropertyOp2
 70
     1
102
RTVSPropertyOp3
 70
     1
102
RTVSPropertyOp4
 70
     1
102
RTVSPropertyOp5
 70
     1
102
RTVSPropertyOp6
 70
     1
102
RTVSPropertyOp7
 70
     1
102
RTVSPropertyOp8
 70
     1
102
RTVSPropertyOp9
 70
     1
102
RTVSPropertyOp10
 70
     1
102
RTVSPropertyOp11
 70
     1
102
RTVSPropertyOp12
 70
     1
102
RTVSPropertyOp13
 70
     1
102
RTVSPropertyOp14
 70
     1
102
RTVSPropertyOp15
 70
     1
102
RTVSPropertyOp16
 70
     1
102
RTVSPropertyOp17
 70
     1
102
RTVSPropertyOp18
 70
     1
102
RTVSPropertyOp19
 70
     1
102
RTVSPropertyOp20
 70
     1
102
RTVSPropertyOp21
 70
     1
102
RTVSPropertyOp22
 70
     1
102
RTVSPropertyOp23
 70
     1
102
RTVSPropertyOp24
 70
     1
102
RTVSPropertyOp25
 70
     1
102
RTVSPropertyOp26
 70
     1
102
RTVSPropertyOp27
 70
     1
102
RTVSPropertyOp28
 70
     1
102
RTVSPropertyOp29
 70
     1
102
RTVSPropertyOp30
 70
     1
102
RTVSPropertyOp31
 70
     1
102
RTVSPropertyOp32
 70
     1
  0
XRECORD
  5
29ACA
102
{ACAD_REACTORS
330
29AC9
102
}
330
29AC9
100
AcDbXrecord
280
     1
102
RTVSPropertyOp0
 70
     1
102
RTVSPropertyOp1
 70
     1
102
RTVSPropertyOp2
 70
     1
102
RTVSPropertyOp3
 70
     1
102
RTVSPropertyOp4
 70
     1
102
RTVSPropertyOp5
 70
     1
102
RTVSPropertyOp6
 70
     1
102
RTVSPropertyOp7
 70
     1
102
RTVSPropertyOp8
 70
     1
102
RTVSPropertyOp9
 70
     1
102
RTVSPropertyOp10
 70
     1
102
RTVSPropertyOp11
 70
     1
102
RTVSPropertyOp12
 70
     1
102
RTVSPropertyOp13
 70
     1
102
RTVSPropertyOp14
 70
     1
102
RTVSPropertyOp15
 70
     1
102
RTVSPropertyOp16
 70
     1
102
RTVSPropertyOp17
 70
     1
102
RTVSPropertyOp18
 70
     1
102
RTVSPropertyOp19
 70
     1
102
RTVSPropertyOp20
 70
     1
102
RTVSPropertyOp21
 70
     1
102
RTVSPropertyOp22
 70
     1
102
RTVSPropertyOp23
 70
     1
102
RTVSPropertyOp24
 70
     1
102
RTVSPropertyOp25
 70
     1
102
RTVSPropertyOp26
 70
     1
102
RTVSPropertyOp27
 70
     1
102
RTVSPropertyOp28
 70
     1
102
RTVSPropertyOp29
 70
     1
102
RTVSPropertyOp30
 70
     1
102
RTVSPropertyOp31
 70
     1
102
RTVSPropertyOp32
 70
     1
  0
XRECORD
  5
29ACC
102
{ACAD_REACTORS
330
29ACB
102
}
330
29ACB
100
AcDbXrecord
280
     1
102
RTVSPropertyOp0
 70
     1
102
RTVSPropertyOp1
 70
     1
102
RTVSPropertyOp2
 70
     1
102
RTVSPropertyOp3
 70
     1
102
RTVSPropertyOp4
 70
     1
102
RTVSPropertyOp5
 70
     1
102
RTVSPropertyOp6
 70
     1
102
RTVSPropertyOp7
 70
     1
102
RTVSPropertyOp8
 70
     1
102
RTVSPropertyOp9
 70
     1
102
RTVSPropertyOp10
 70
     1
102
RTVSPropertyOp11
 70
     1
102
RTVSPropertyOp12
 70
     1
102
RTVSPropertyOp13
 70
     1
102
RTVSPropertyOp14
 70
     1
102
RTVSPropertyOp15
 70
     1
102
RTVSPropertyOp16
 70
     1
102
RTVSPropertyOp17
 70
     1
102
RTVSPropertyOp18
 70
     1
102
RTVSPropertyOp19
 70
     1
102
RTVSPropertyOp20
 70
     1
102
RTVSPropertyOp21
 70
     1
102
RTVSPropertyOp22
 70
     1
102
RTVSPropertyOp23
 70
     1
102
RTVSPropertyOp24
 70
     1
102
RTVSPropertyOp25
 70
     1
102
RTVSPropertyOp26
 70
     1
102
RTVSPropertyOp27
 70
     1
102
RTVSPropertyOp28
 70
     1
102
RTVSPropertyOp29
 70
     1
102
RTVSPropertyOp30
 70
     1
102
RTVSPropertyOp31
 70
     1
102
RTVSPropertyOp32
 70
     1
  0
XRECORD
  5
29ACE
102
{ACAD_REACTORS
330
29ACD
102
}
330
29ACD
100
AcDbXrecord
280
     1
102
RTVSPropertyOp0
 70
     1
102
RTVSPropertyOp1
 70
     1
102
RTVSPropertyOp2
 70
     1
102
RTVSPropertyOp3
 70
     1
102
RTVSPropertyOp4
 70
     1
102
RTVSPropertyOp5
 70
     1
102
RTVSPropertyOp6
 70
     1
102
RTVSPropertyOp7
 70
     1
102
RTVSPropertyOp8
 70
     1
102
RTVSPropertyOp9
 70
     1
102
RTVSPropertyOp10
 70
     1
102
RTVSPropertyOp11
 70
     1
102
RTVSPropertyOp12
 70
     1
102
RTVSPropertyOp13
 70
     1
102
RTVSPropertyOp14
 70
     1
102
RTVSPropertyOp15
 70
     1
102
RTVSPropertyOp16
 70
     1
102
RTVSPropertyOp17
 70
     1
102
RTVSPropertyOp18
 70
     1
102
RTVSPropertyOp19
 70
     1
102
RTVSPropertyOp20
 70
     1
102
RTVSPropertyOp21
 70
     1
102
RTVSPropertyOp22
 70
     1
102
RTVSPropertyOp23
 70
     1
102
RTVSPropertyOp24
 70
     1
102
RTVSPropertyOp25
 70
     1
102
RTVSPropertyOp26
 70
     1
102
RTVSPropertyOp27
 70
     1
102
RTVSPropertyOp28
 70
     1
102
RTVSPropertyOp29
 70
     1
102
RTVSPropertyOp30
 70
     1
102
RTVSPropertyOp31
 70
     1
102
RTVSPropertyOp32
 70
     1
  0
XRECORD
  5
29AD0
102
{ACAD_REACTORS
330
29ACF
102
}
330
29ACF
100
AcDbXrecord
280
     1
102
RTVSPropertyOp0
 70
     1
102
RTVSPropertyOp1
 70
     1
102
RTVSPropertyOp2
 70
     1
102
RTVSPropertyOp3
 70
     1
102
RTVSPropertyOp4
 70
     1
102
RTVSPropertyOp5
 70
     1
102
RTVSPropertyOp6
 70
     1
102
RTVSPropertyOp7
 70
     1
102
RTVSPropertyOp8
 70
     1
102
RTVSPropertyOp9
 70
     1
102
RTVSPropertyOp10
 70
     1
102
RTVSPropertyOp11
 70
     1
102
RTVSPropertyOp12
 70
     1
102
RTVSPropertyOp13
 70
     1
102
RTVSPropertyOp14
 70
     1
102
RTVSPropertyOp15
 70
     1
102
RTVSPropertyOp16
 70
     1
102
RTVSPropertyOp17
 70
     1
102
RTVSPropertyOp18
 70
     1
102
RTVSPropertyOp19
 70
     1
102
RTVSPropertyOp20
 70
     1
102
RTVSPropertyOp21
 70
     1
102
RTVSPropertyOp22
 70
     1
102
RTVSPropertyOp23
 70
     1
102
RTVSPropertyOp24
 70
     1
102
RTVSPropertyOp25
 70
     1
102
RTVSPropertyOp26
 70
     1
102
RTVSPropertyOp27
 70
     1
102
RTVSPropertyOp28
 70
     1
102
RTVSPropertyOp29
 70
     1
102
RTVSPropertyOp30
 70
     1
102
RTVSPropertyOp31
 70
     1
102
RTVSPropertyOp32
 70
     1
  0
XRECORD
  5
29AD8
102
{ACAD_REACTORS
330
29AD7
102
}
330
29AD7
100
AcDbXrecord
280
     1
102
RTVSPropertyOp0
 70
     1
102
RTVSPropertyOp1
 70
     1
102
RTVSPropertyOp2
 70
     1
102
RTVSPropertyOp3
 70
     1
102
RTVSPropertyOp4
 70
     1
102
RTVSPropertyOp5
 70
     1
102
RTVSPropertyOp6
 70
     1
102
RTVSPropertyOp7
 70
     1
102
RTVSPropertyOp8
 70
     1
102
RTVSPropertyOp9
 70
     1
102
RTVSPropertyOp10
 70
     1
102
RTVSPropertyOp11
 70
     1
102
RTVSPropertyOp12
 70
     1
102
RTVSPropertyOp13
 70
     1
102
RTVSPropertyOp14
 70
     1
102
RTVSPropertyOp15
 70
     1
102
RTVSPropertyOp16
 70
     1
102
RTVSPropertyOp17
 70
     1
102
RTVSPropertyOp18
 70
     1
102
RTVSPropertyOp19
 70
     1
102
RTVSPropertyOp20
 70
     1
102
RTVSPropertyOp21
 70
     1
102
RTVSPropertyOp22
 70
     1
102
RTVSPropertyOp23
 70
     1
102
RTVSPropertyOp24
 70
     1
102
RTVSPropertyOp25
 70
     1
102
RTVSPropertyOp26
 70
     1
102
RTVSPropertyOp27
 70
     1
102
RTVSPropertyOp28
 70
     1
102
RTVSPropertyOp29
 70
     1
102
RTVSPropertyOp30
 70
     1
102
RTVSPropertyOp31
 70
     1
102
RTVSPropertyOp32
 70
     1
  0
XRECORD
  5
29AF4
102
{ACAD_REACTORS
330
29AF3
102
}
330
29AF3
100
AcDbXrecord
280
     1
102
RTVSPropertyOp0
 70
     0
102
RTVSPropertyOp1
 70
     0
102
RTVSPropertyOp2
 70
     0
102
RTVSPropertyOp3
 70
     0
102
RTVSPropertyOp4
 70
     0
102
RTVSPropertyOp5
 70
     0
102
RTVSPropertyOp6
 70
     0
102
RTVSPropertyOp7
 70
     0
102
RTVSPropertyOp8
 70
     0
102
RTVSPropertyOp9
 70
     0
102
RTVSPropertyOp10
 70
     0
102
RTVSPropertyOp11
 70
     0
102
RTVSPropertyOp12
 70
     0
102
RTVSPropertyOp13
 70
     0
102
RTVSPropertyOp14
 70
     2
102
RTVSPropertyOp15
 70
     0
102
RTVSPropertyOp16
 70
     0
102
RTVSPropertyOp17
 70
     0
102
RTVSPropertyOp18
 70
     0
102
RTVSPropertyOp19
 70
     0
102
RTVSPropertyOp20
 70
     0
102
RTVSPropertyOp21
 70
     0
102
RTVSPropertyOp22
 70
     0
102
RTVSPropertyOp23
 70
     0
102
RTVSPropertyOp24
 70
     0
102
RTVSPropertyOp25
 70
     0
102
RTVSPropertyOp26
 70
     0
102
RTVSPropertyOp27
 70
     0
102
RTVSPropertyOp28
 70
     0
102
RTVSPropertyOp29
 70
     0
102
RTVSPropertyOp30
 70
     0
102
RTVSPropertyOp31
 70
     0
102
RTVSPropertyOp32
 70
     0
  0
XRECORD
  5
29AE4
102
{ACAD_REACTORS
330
29AE3
102
}
330
29AE3
100
AcDbXrecord
280
     1
102
RTVSPropertyOp0
 70
     1
102
RTVSPropertyOp1
 70
     1
102
RTVSPropertyOp2
 70
     1
102
RTVSPropertyOp3
 70
     1
102
RTVSPropertyOp4
 70
     1
102
RTVSPropertyOp5
 70
     1
102
RTVSPropertyOp6
 70
     1
102
RTVSPropertyOp7
 70
     1
102
RTVSPropertyOp8
 70
     1
102
RTVSPropertyOp9
 70
     1
102
RTVSPropertyOp10
 70
     1
102
RTVSPropertyOp11
 70
     1
102
RTVSPropertyOp12
 70
     1
102
RTVSPropertyOp13
 70
     1
102
RTVSPropertyOp14
 70
     1
102
RTVSPropertyOp15
 70
     1
102
RTVSPropertyOp16
 70
     1
102
RTVSPropertyOp17
 70
     1
102
RTVSPropertyOp18
 70
     1
102
RTVSPropertyOp19
 70
     1
102
RTVSPropertyOp20
 70
     1
102
RTVSPropertyOp21
 70
     1
102
RTVSPropertyOp22
 70
     1
102
RTVSPropertyOp23
 70
     1
102
RTVSPropertyOp24
 70
     1
102
RTVSPropertyOp25
 70
     1
102
RTVSPropertyOp26
 70
     1
102
RTVSPropertyOp27
 70
     1
102
RTVSPropertyOp28
 70
     1
102
RTVSPropertyOp29
 70
     1
102
RTVSPropertyOp30
 70
     1
102
RTVSPropertyOp31
 70
     1
102
RTVSPropertyOp32
 70
     1
  0
XRECORD
  5
29AF6
102
{ACAD_REACTORS
330
29AF5
102
}
330
29AF5
100
AcDbXrecord
280
     1
102
RTVSPropertyOp0
 70
     0
102
RTVSPropertyOp1
 70
     0
102
RTVSPropertyOp2
 70
     0
102
RTVSPropertyOp3
 70
     0
102
RTVSPropertyOp4
 70
     0
102
RTVSPropertyOp5
 70
     0
102
RTVSPropertyOp6
 70
     0
102
RTVSPropertyOp7
 70
     0
102
RTVSPropertyOp8
 70
     0
102
RTVSPropertyOp9
 70
     0
102
RTVSPropertyOp10
 70
     0
102
RTVSPropertyOp11
 70
     0
102
RTVSPropertyOp12
 70
     0
102
RTVSPropertyOp13
 70
     0
102
RTVSPropertyOp14
 70
     2
102
RTVSPropertyOp15
 70
     0
102
RTVSPropertyOp16
 70
     0
102
RTVSPropertyOp17
 70
     0
102
RTVSPropertyOp18
 70
     0
102
RTVSPropertyOp19
 70
     0
102
RTVSPropertyOp20
 70
     0
102
RTVSPropertyOp21
 70
     0
102
RTVSPropertyOp22
 70
     0
102
RTVSPropertyOp23
 70
     0
102
RTVSPropertyOp24
 70
     0
102
RTVSPropertyOp25
 70
     0
102
RTVSPropertyOp26
 70
     0
102
RTVSPropertyOp27
 70
     0
102
RTVSPropertyOp28
 70
     0
102
RTVSPropertyOp29
 70
     0
102
RTVSPropertyOp30
 70
     0
102
RTVSPropertyOp31
 70
     0
102
RTVSPropertyOp32
 70
     0
  0
XRECORD
  5
29ADC
102
{ACAD_REACTORS
330
29ADB
102
}
330
29ADB
100
AcDbXrecord
280
     1
102
RTVSPropertyOp0
 70
     1
102
RTVSPropertyOp1
 70
     1
102
RTVSPropertyOp2
 70
     1
102
RTVSPropertyOp3
 70
     1
102
RTVSPropertyOp4
 70
     1
102
RTVSPropertyOp5
 70
     1
102
RTVSPropertyOp6
 70
     1
102
RTVSPropertyOp7
 70
     1
102
RTVSPropertyOp8
 70
     1
102
RTVSPropertyOp9
 70
     1
102
RTVSPropertyOp10
 70
     1
102
RTVSPropertyOp11
 70
     1
102
RTVSPropertyOp12
 70
     1
102
RTVSPropertyOp13
 70
     1
102
RTVSPropertyOp14
 70
     1
102
RTVSPropertyOp15
 70
     1
102
RTVSPropertyOp16
 70
     1
102
RTVSPropertyOp17
 70
     1
102
RTVSPropertyOp18
 70
     1
102
RTVSPropertyOp19
 70
     1
102
RTVSPropertyOp20
 70
     1
102
RTVSPropertyOp21
 70
     1
102
RTVSPropertyOp22
 70
     1
102
RTVSPropertyOp23
 70
     1
102
RTVSPropertyOp24
 70
     1
102
RTVSPropertyOp25
 70
     1
102
RTVSPropertyOp26
 70
     1
102
RTVSPropertyOp27
 70
     1
102
RTVSPropertyOp28
 70
     1
102
RTVSPropertyOp29
 70
     1
102
RTVSPropertyOp30
 70
     1
102
RTVSPropertyOp31
 70
     1
102
RTVSPropertyOp32
 70
     1
  0
XRECORD
  5
29AF2
102
{ACAD_REACTORS
330
29AF1
102
}
330
29AF1
100
AcDbXrecord
280
     1
102
RTVSPropertyOp0
 70
     1
102
RTVSPropertyOp1
 70
     1
102
RTVSPropertyOp2
 70
     1
102
RTVSPropertyOp3
 70
     1
102
RTVSPropertyOp4
 70
     1
102
RTVSPropertyOp5
 70
     1
102
RTVSPropertyOp6
 70
     1
102
RTVSPropertyOp7
 70
     1
102
RTVSPropertyOp8
 70
     1
102
RTVSPropertyOp9
 70
     1
102
RTVSPropertyOp10
 70
     1
102
RTVSPropertyOp11
 70
     1
102
RTVSPropertyOp12
 70
     1
102
RTVSPropertyOp13
 70
     1
102
RTVSPropertyOp14
 70
     1
102
RTVSPropertyOp15
 70
     1
102
RTVSPropertyOp16
 70
     1
102
RTVSPropertyOp17
 70
     1
102
RTVSPropertyOp18
 70
     1
102
RTVSPropertyOp19
 70
     1
102
RTVSPropertyOp20
 70
     1
102
RTVSPropertyOp21
 70
     1
102
RTVSPropertyOp22
 70
     1
102
RTVSPropertyOp23
 70
     1
102
RTVSPropertyOp24
 70
     1
102
RTVSPropertyOp25
 70
     1
102
RTVSPropertyOp26
 70
     1
102
RTVSPropertyOp27
 70
     1
102
RTVSPropertyOp28
 70
     1
102
RTVSPropertyOp29
 70
     1
102
RTVSPropertyOp30
 70
     1
102
RTVSPropertyOp31
 70
     1
102
RTVSPropertyOp32
 70
     1
  0
XRECORD
  5
29AF0
102
{ACAD_REACTORS
330
29AEF
102
}
330
29AEF
100
AcDbXrecord
280
     1
102
RTVSPropertyOp0
 70
     1
102
RTVSPropertyOp1
 70
     1
102
RTVSPropertyOp2
 70
     1
102
RTVSPropertyOp3
 70
     1
102
RTVSPropertyOp4
 70
     1
102
RTVSPropertyOp5
 70
     1
102
RTVSPropertyOp6
 70
     1
102
RTVSPropertyOp7
 70
     1
102
RTVSPropertyOp8
 70
     1
102
RTVSPropertyOp9
 70
     1
102
RTVSPropertyOp10
 70
     1
102
RTVSPropertyOp11
 70
     1
102
RTVSPropertyOp12
 70
     1
102
RTVSPropertyOp13
 70
     1
102
RTVSPropertyOp14
 70
     1
102
RTVSPropertyOp15
 70
     1
102
RTVSPropertyOp16
 70
     1
102
RTVSPropertyOp17
 70
     1
102
RTVSPropertyOp18
 70
     1
102
RTVSPropertyOp19
 70
     1
102
RTVSPropertyOp20
 70
     1
102
RTVSPropertyOp21
 70
     1
102
RTVSPropertyOp22
 70
     1
102
RTVSPropertyOp23
 70
     1
102
RTVSPropertyOp24
 70
     1
102
RTVSPropertyOp25
 70
     1
102
RTVSPropertyOp26
 70
     1
102
RTVSPropertyOp27
 70
     1
102
RTVSPropertyOp28
 70
     1
102
RTVSPropertyOp29
 70
     1
102
RTVSPropertyOp30
 70
     1
102
RTVSPropertyOp31
 70
     1
102
RTVSPropertyOp32
 70
     1
  0
XRECORD
  5
29AEA
102
{ACAD_REACTORS
330
29AE9
102
}
330
29AE9
100
AcDbXrecord
280
     1
102
RTVSPropertyOp0
 70
     1
102
RTVSPropertyOp1
 70
     1
102
RTVSPropertyOp2
 70
     1
102
RTVSPropertyOp3
 70
     1
102
RTVSPropertyOp4
 70
     1
102
RTVSPropertyOp5
 70
     1
102
RTVSPropertyOp6
 70
     1
102
RTVSPropertyOp7
 70
     1
102
RTVSPropertyOp8
 70
     1
102
RTVSPropertyOp9
 70
     1
102
RTVSPropertyOp10
 70
     1
102
RTVSPropertyOp11
 70
     1
102
RTVSPropertyOp12
 70
     1
102
RTVSPropertyOp13
 70
     1
102
RTVSPropertyOp14
 70
     1
102
RTVSPropertyOp15
 70
     1
102
RTVSPropertyOp16
 70
     1
102
RTVSPropertyOp17
 70
     1
102
RTVSPropertyOp18
 70
     1
102
RTVSPropertyOp19
 70
     1
102
RTVSPropertyOp20
 70
     1
102
RTVSPropertyOp21
 70
     1
102
RTVSPropertyOp22
 70
     1
102
RTVSPropertyOp23
 70
     1
102
RTVSPropertyOp24
 70
     1
102
RTVSPropertyOp25
 70
     1
102
RTVSPropertyOp26
 70
     1
102
RTVSPropertyOp27
 70
     1
102
RTVSPropertyOp28
 70
     1
102
RTVSPropertyOp29
 70
     1
102
RTVSPropertyOp30
 70
     1
102
RTVSPropertyOp31
 70
     1
102
RTVSPropertyOp32
 70
     1
  0
XRECORD
  5
29AEC
102
{ACAD_REACTORS
330
29AEB
102
}
330
29AEB
100
AcDbXrecord
280
     1
102
RTVSPropertyOp0
 70
     1
102
RTVSPropertyOp1
 70
     1
102
RTVSPropertyOp2
 70
     1
102
RTVSPropertyOp3
 70
     1
102
RTVSPropertyOp4
 70
     1
102
RTVSPropertyOp5
 70
     1
102
RTVSPropertyOp6
 70
     1
102
RTVSPropertyOp7
 70
     1
102
RTVSPropertyOp8
 70
     1
102
RTVSPropertyOp9
 70
     1
102
RTVSPropertyOp10
 70
     1
102
RTVSPropertyOp11
 70
     1
102
RTVSPropertyOp12
 70
     1
102
RTVSPropertyOp13
 70
     1
102
RTVSPropertyOp14
 70
     1
102
RTVSPropertyOp15
 70
     1
102
RTVSPropertyOp16
 70
     1
102
RTVSPropertyOp17
 70
     1
102
RTVSPropertyOp18
 70
     1
102
RTVSPropertyOp19
 70
     1
102
RTVSPropertyOp20
 70
     1
102
RTVSPropertyOp21
 70
     1
102
RTVSPropertyOp22
 70
     1
102
RTVSPropertyOp23
 70
     1
102
RTVSPropertyOp24
 70
     1
102
RTVSPropertyOp25
 70
     1
102
RTVSPropertyOp26
 70
     1
102
RTVSPropertyOp27
 70
     1
102
RTVSPropertyOp28
 70
     1
102
RTVSPropertyOp29
 70
     1
102
RTVSPropertyOp30
 70
     1
102
RTVSPropertyOp31
 70
     1
102
RTVSPropertyOp32
 70
     1
  0
XRECORD
  5
29AE2
102
{ACAD_REACTORS
330
29AE1
102
}
330
29AE1
100
AcDbXrecord
280
     1
102
RTVSPropertyOp0
 70
     1
102
RTVSPropertyOp1
 70
     1
102
RTVSPropertyOp2
 70
     1
102
RTVSPropertyOp3
 70
     1
102
RTVSPropertyOp4
 70
     1
102
RTVSPropertyOp5
 70
     1
102
RTVSPropertyOp6
 70
     1
102
RTVSPropertyOp7
 70
     1
102
RTVSPropertyOp8
 70
     1
102
RTVSPropertyOp9
 70
     1
102
RTVSPropertyOp10
 70
     1
102
RTVSPropertyOp11
 70
     1
102
RTVSPropertyOp12
 70
     1
102
RTVSPropertyOp13
 70
     1
102
RTVSPropertyOp14
 70
     1
102
RTVSPropertyOp15
 70
     1
102
RTVSPropertyOp16
 70
     1
102
RTVSPropertyOp17
 70
     1
102
RTVSPropertyOp18
 70
     1
102
RTVSPropertyOp19
 70
     1
102
RTVSPropertyOp20
 70
     1
102
RTVSPropertyOp21
 70
     1
102
RTVSPropertyOp22
 70
     1
102
RTVSPropertyOp23
 70
     1
102
RTVSPropertyOp24
 70
     1
102
RTVSPropertyOp25
 70
     1
102
RTVSPropertyOp26
 70
     1
102
RTVSPropertyOp27
 70
     1
102
RTVSPropertyOp28
 70
     1
102
RTVSPropertyOp29
 70
     1
102
RTVSPropertyOp30
 70
     1
102
RTVSPropertyOp31
 70
     1
102
RTVSPropertyOp32
 70
     1
  0
XRECORD
  5
29AD6
102
{ACAD_REACTORS
330
29AD5
102
}
330
29AD5
100
AcDbXrecord
280
     1
102
RTVSPropertyOp0
 70
     1
102
RTVSPropertyOp1
 70
     1
102
RTVSPropertyOp2
 70
     1
102
RTVSPropertyOp3
 70
     1
102
RTVSPropertyOp4
 70
     1
102
RTVSPropertyOp5
 70
     1
102
RTVSPropertyOp6
 70
     1
102
RTVSPropertyOp7
 70
     1
102
RTVSPropertyOp8
 70
     1
102
RTVSPropertyOp9
 70
     1
102
RTVSPropertyOp10
 70
     1
102
RTVSPropertyOp11
 70
     1
102
RTVSPropertyOp12
 70
     1
102
RTVSPropertyOp13
 70
     1
102
RTVSPropertyOp14
 70
     1
102
RTVSPropertyOp15
 70
     1
102
RTVSPropertyOp16
 70
     1
102
RTVSPropertyOp17
 70
     1
102
RTVSPropertyOp18
 70
     1
102
RTVSPropertyOp19
 70
     1
102
RTVSPropertyOp20
 70
     1
102
RTVSPropertyOp21
 70
     1
102
RTVSPropertyOp22
 70
     1
102
RTVSPropertyOp23
 70
     1
102
RTVSPropertyOp24
 70
     1
102
RTVSPropertyOp25
 70
     1
102
RTVSPropertyOp26
 70
     1
102
RTVSPropertyOp27
 70
     1
102
RTVSPropertyOp28
 70
     1
102
RTVSPropertyOp29
 70
     1
102
RTVSPropertyOp30
 70
     1
102
RTVSPropertyOp31
 70
     1
102
RTVSPropertyOp32
 70
     1
  0
XRECORD
  5
29AEE
102
{ACAD_REACTORS
330
29AED
102
}
330
29AED
100
AcDbXrecord
280
     1
102
RTVSPropertyOp0
 70
     1
102
RTVSPropertyOp1
 70
     1
102
RTVSPropertyOp2
 70
     1
102
RTVSPropertyOp3
 70
     1
102
RTVSPropertyOp4
 70
     1
102
RTVSPropertyOp5
 70
     1
102
RTVSPropertyOp6
 70
     1
102
RTVSPropertyOp7
 70
     1
102
RTVSPropertyOp8
 70
     1
102
RTVSPropertyOp9
 70
     1
102
RTVSPropertyOp10
 70
     1
102
RTVSPropertyOp11
 70
     1
102
RTVSPropertyOp12
 70
     1
102
RTVSPropertyOp13
 70
     1
102
RTVSPropertyOp14
 70
     1
102
RTVSPropertyOp15
 70
     1
102
RTVSPropertyOp16
 70
     1
102
RTVSPropertyOp17
 70
     1
102
RTVSPropertyOp18
 70
     1
102
RTVSPropertyOp19
 70
     1
102
RTVSPropertyOp20
 70
     1
102
RTVSPropertyOp21
 70
     1
102
RTVSPropertyOp22
 70
     1
102
RTVSPropertyOp23
 70
     1
102
RTVSPropertyOp24
 70
     1
102
RTVSPropertyOp25
 70
     1
102
RTVSPropertyOp26
 70
     1
102
RTVSPropertyOp27
 70
     1
102
RTVSPropertyOp28
 70
     1
102
RTVSPropertyOp29
 70
     1
102
RTVSPropertyOp30
 70
     1
102
RTVSPropertyOp31
 70
     1
102
RTVSPropertyOp32
 70
     1
  0
ENDSEC
  0
EOF
