  0
SECTION
  2
HEADER
  9
$ACADVER
  1
AC1009
  9
$INSBASE
 10
0.0
 20
0.0
 30
0.0
  9
$EXTMIN
 10
0.0207678202358039
 20
0.021127387059245
 30
-0.0000000000112498
  9
$EXTMAX
 10
8.5210271563173379
 20
11.021462998458871
 30
0.0000000000002956
  9
$LIMMIN
 10
0.0282219718902752
 20
0.0212951159202533
  9
$LIMMAX
 10
8.5208974289011241
 20
11.02129511592025
  9
$ORTHOMODE
 70
     1
  9
$REGENMODE
 70
     1
  9
$FILLMODE
 70
     1
  9
$QTEXTMODE
 70
     0
  9
$MIRRTEXT
 70
     1
  9
$DRAGMODE
 70
     2
  9
$LTSCALE
 40
1.0
  9
$OSMODE
 70
  3071
  9
$ATTMODE
 70
     1
  9
$TEXTSIZE
 40
0.14
  9
$TRACEWID
 40
0.05
  9
$TEXTSTYLE
  7
SIMPLEX
  9
$CLAYER
  8
0
  9
$CELTYPE
  6
BYLAYER
  9
$CECOLOR
 62
   256
  9
$DIMSCALE
 40
0.0
  9
$DIMASZ
 40
0.18
  9
$DIMEXO
 40
0.0625
  9
$DIMDLI
 40
0.38
  9
$DIMRND
 40
0.0
  9
$DIMDLE
 40
0.0
  9
$DIMEXE
 40
0.08
  9
$DIMTP
 40
0.005
  9
$DIMTM
 40
0.005
  9
$DIMTXT
 40
0.18
  9
$DIMCEN
 40
0.0
  9
$DIMTSZ
 40
0.0
  9
$DIMTOL
 70
     0
  9
$DIMLIM
 70
     0
  9
$DIMTIH
 70
     1
  9
$DIMTOH
 70
     1
  9
$DIMSE1
 70
     0
  9
$DIMSE2
 70
     0
  9
$DIMTAD
 70
     0
  9
$DIMZIN
 70
     4
  9
$DIMBLK
  1

  9
$DIMASO
 70
     1
  9
$DIMSHO
 70
     1
  9
$DIMPOST
  1
\X
  9
$DIMAPOST
  1

  9
$DIMALT
 70
     1
  9
$DIMALTD
 70
     2
  9
$DIMALTF
 40
25.399999999999999
  9
$DIMLFAC
 40
1.0
  9
$DIMTOFL
 70
     0
  9
$DIMTVP
 40
0.0
  9
$DIMTIX
 70
     1
  9
$DIMSOXD
 70
     0
  9
$DIMSAH
 70
     0
  9
$DIMBLK1
  1

  9
$DIMBLK2
  1

  9
$DIMSTYLE
  2
3_PLC_DIM
  9
$DIMCLRD
 70
   256
  9
$DIMCLRE
 70
   256
  9
$DIMCLRT
 70
   256
  9
$DIMTFAC
 40
1.0
  9
$DIMGAP
 40
0.09
  9
$LUNITS
 70
     2
  9
$LUPREC
 70
     4
  9
$SKETCHINC
 40
0.1
  9
$FILLETRAD
 40
0.1
  9
$AUNITS
 70
     0
  9
$AUPREC
 70
     0
  9
$MENU
  1
acad
  9
$ELEVATION
 40
0.0
  9
$PELEVATION
 40
0.0
  9
$THICKNESS
 40
0.0
  9
$LIMCHECK
 70
     0
  9
$BLIPMODE
 70
     0
  9
$CHAMFERA
 40
0.08
  9
$CHAMFERB
 40
0.08
  9
$SKPOLY
 70
     0
  9
$TDCREATE
 40
2449371.6142515042
  9
$TDUPDATE
 40
2457227.3462483101
  9
$TDINDWG
 40
2.7963895948999999
  9
$TDUSRTIMER
 40
2.7963895948999999
  9
$USRTIMER
 70
     1
  9
$ANGBASE
 50
0.0
  9
$ANGDIR
 70
     0
  9
$PDMODE
 70
     0
  9
$PDSIZE
 40
0.0
  9
$PLINEWID
 40
0.025
  9
$COORDS
 70
     2
  9
$SPLFRAME
 70
     0
  9
$SPLINETYPE
 70
     6
  9
$SPLINESEGS
 70
     8
  9
$ATTDIA
 70
     0
  9
$ATTREQ
 70
     1
  9
$HANDLING
 70
     1
  9
$HANDSEED
  5
2985D
  9
$SURFTAB1
 70
     6
  9
$SURFTAB2
 70
     6
  9
$SURFTYPE
 70
     6
  9
$SURFU
 70
     6
  9
$SURFV
 70
     6
  9
$UCSNAME
  2

  9
$UCSORG
 10
0.0
 20
0.0
 30
0.0
  9
$UCSXDIR
 10
1.0
 20
0.0
 30
0.0
  9
$UCSYDIR
 10
0.0
 20
1.0
 30
0.0
  9
$PUCSNAME
  2

  9
$PUCSORG
 10
0.0
 20
0.0
 30
0.0
  9
$PUCSXDIR
 10
1.0
 20
0.0
 30
0.0
  9
$PUCSYDIR
 10
0.0
 20
1.0
 30
0.0
  9
$USERI1
 70
     0
  9
$USERI2
 70
     0
  9
$USERI3
 70
     0
  9
$USERI4
 70
     0
  9
$USERI5
 70
     0
  9
$USERR1
 40
0.0
  9
$USERR2
 40
0.0
  9
$USERR3
 40
0.0
  9
$USERR4
 40
0.0
  9
$USERR5
 40
0.0
  9
$WORLDVIEW
 70
     1
  9
$SHADEDGE
 70
     3
  9
$SHADEDIF
 70
    70
  9
$TILEMODE
 70
     1
  9
$MAXACTVP
 70
    16
  9
$PLIMCHECK
 70
     0
  9
$PEXTMIN
 10
1.0000000000000000E+020
 20
1.0000000000000000E+020
 30
1.0000000000000000E+020
  9
$PEXTMAX
 10
-1.0000000000000000E+020
 20
-1.0000000000000000E+020
 30
-1.0000000000000000E+020
  9
$PLIMMIN
 10
0.0
 20
0.0
  9
$PLIMMAX
 10
12.0
 20
9.0
  9
$UNITMODE
 70
     0
  9
$VISRETAIN
 70
     0
  9
$PLINEGEN
 70
     0
  9
$PSLTSCALE
 70
     1
  0
ENDSEC
  0
SECTION
  2
TABLES
  0
TABLE
  2
VPORT
 70
     1
  0
VPORT
  2
*ACTIVE
 70
     0
 10
0.0
 20
0.0
 11
1.0
 21
1.0
 12
6.077057420637515
 22
5.1115350214566471
 13
0.0
 23
0.0
 14
0.5
 24
0.5
 15
0.5
 25
0.5
 16
0.0
 26
0.0
 36
1.0
 17
0.0
 27
0.0
 37
0.0
 40
15.43009109555978
 41
1.974042027194066
 42
50.0
 43
0.0
 44
0.0
 50
0.0
 51
0.0
 71
     0
 72
   100
 73
     1
 74
     0
 75
     0
 76
     0
 77
     0
 78
     0
  0
ENDTAB
  0
TABLE
  2
LTYPE
 70
     5
  0
LTYPE
  2
CONTINUOUS
 70
     0
  3
Solid line
 72
    65
 73
     0
 40
0.0
  0
LTYPE
  2
HIDDEN2
 70
     0
  3
_ _ _ _ _ _ _ _ _ _ _ _ _ _ _ _ _ _ _ _ _ _ _ _
 72
    65
 73
     2
 40
0.1875
 49
0.125
 49
-0.0625
  0
LTYPE
  2
ACAD_ISO07W100
 70
     0
  3
ISO dot . . . . . . . . . . . . . . . . . . . .
 72
    65
 73
     2
 40
3.0
 49
0.0
 49
-3.0
  0
LTYPE
  2
HIDDEN
 70
     0
  3
Hidden __ __ __ __ __ __ __ __ __ __ __ __ __ _
 72
    65
 73
     2
 40
0.375
 49
0.25
 49
-0.125
  0
ENDTAB
  0
TABLE
  2
LAYER
 70
     5
  0
LAYER
  2
0
 70
     0
 62
     7
  6
CONTINUOUS
  0
LAYER
  2
TITLE
 70
     4
 62
     5
  6
CONTINUOUS
  0
LAYER
  2
DEFPOINTS
 70
     0
 62
     7
  6
CONTINUOUS
  0
LAYER
  2
DIMENSION
 70
     0
 62
     3
  6
CONTINUOUS
  0
LAYER
  2
HIDDEN
 70
     0
 62
     5
  6
HIDDEN2
  0
ENDTAB
  0
TABLE
  2
STYLE
 70
     5
  0
STYLE
  2
STANDARD
 70
     0
 40
0.0
 41
1.0
 50
0.0
 71
     0
 42
0.2
  3
txt
  4

  0
STYLE
  2
SIMPLEX
 70
     0
 40
0.0
 41
1.0
 50
0.0
 71
     0
 42
0.14
  3
simplex.shx
  4

  0
STYLE
  2
ROMANS
 70
     0
 40
0.0
 41
1.0
 50
0.0
 71
     0
 42
0.15
  3
romans
  4

  0
STYLE
  2
ROMANT
 70
     0
 40
0.0
 41
1.0
 50
0.0
 71
     0
 42
0.14
  3
romant.shx
  4

  0
ENDTAB
  0
TABLE
  2
VIEW
 70
     1
  0
ENDTAB
  0
TABLE
  2
UCS
 70
     0
  0
ENDTAB
  0
TABLE
  2
APPID
 70
     9
  0
APPID
  2
ACAD
 70
     0
  0
APPID
  2
CONTENTBLOCKICON
 70
     0
  0
APPID
  2
CONTENTTABDATA
 70
     0
  0
APPID
  2
CONTENTCURRENTTAB
 70
     0
  0
APPID
  2
CONTENTBLOCKDESCRIPTION
 70
     0
  0
APPID
  2
ACAD_EXEMPT_FROM_CAD_STANDARDS
 70
     0
  0
APPID
  2
ACAD_NAV_VCDISPLAY
 70
     0
  0
APPID
  2
ACAD_DSTYLE_DIMRADIAL_EXTENSION
 70
     0
  0
APPID
  2
ACAD_MLEADERVER
 70
     0
  0
ENDTAB
  0
TABLE
  2
DIMSTYLE
 70
     3
  0
DIMSTYLE
  2
STANDARD
 70
     0
  3

  4

  5

  6

  7

 40
1.0
 41
0.18
 42
0.0625
 43
0.38
 44
0.18
 45
0.0
 46
0.0
 47
0.0
 48
0.0
140
0.18
141
0.09
142
0.0
143
25.399999999999999
144
1.0
145
0.0
146
1.0
147
0.09
 71
     0
 72
     0
 73
     1
 74
     1
 75
     0
 76
     0
 77
     0
 78
     0
170
     0
171
     2
172
     0
173
     0
174
     0
175
     0
176
     0
177
     0
178
     0
  0
DIMSTYLE
  2
3_PLC_DIM
 70
     0
  3

  4

  5

  6

  7

 40
0.0
 41
0.18
 42
0.0625
 43
0.38
 44
0.18
 45
0.01
 46
0.0
 47
0.005
 48
0.005
140
0.18
141
-0.05
142
0.0
143
25.399999999999999
144
1.0
145
0.0
146
1.0
147
0.09
 71
     0
 72
     0
 73
     1
 74
     1
 75
     0
 76
     0
 77
     0
 78
     0
170
     0
171
     2
172
     0
173
     0
174
     1
175
     0
176
   256
177
   256
178
   256
  0
ENDTAB
  0
ENDSEC
  0
SECTION
  2
BLOCKS
  0
BLOCK
  8
0
  2
$MODEL_SPACE
 70
     0
 10
0.0
 20
0.0
 30
0.0
  3
$MODEL_SPACE
  1

  0
ENDBLK
  5
D3
  8
0
  0
BLOCK
 67
     1
  8
0
  2
$PAPER_SPACE
 70
     0
 10
0.0
 20
0.0
 30
0.0
  3
$PAPER_SPACE
  1

  0
ENDBLK
  5
D1
 67
     1
  8
0
  0
BLOCK
  8
0
  2
*U2
 70
     1
 10
0.0
 20
0.0
 30
0.0
  3
*U2
  1

  0
TEXT
  5
29664
  8
0
 10
4.3216129648985229
 20
2.0531767343702798
 30
0.0
 40
0.1
  1
ALTINEX, INC. MODEL NUMBERS:
  7
ROMANT
  0
ENDBLK
  5
29666
  8
0
  0
BLOCK
  8
0
  2
*U3
 70
     1
 10
0.0
 20
0.0
 30
0.0
  3
*U3
  1

  0
TEXT
  5
29668
  8
0
 10
0.5513766446750755
 20
0.8419887261318912
 30
0.0
 40
0.28
  1
1. STOP          2. MEASURE           3. CUT
  7
ROMANT
  0
ENDBLK
  5
2966A
  8
0
  0
BLOCK
  8
0
  2
*U4
 70
     1
 10
0.0
 20
0.0
 30
0.0
  3
*U4
  1

  0
TEXT
  5
2966C
  8
0
 10
0.5523766446750759
 20
9.9807691244948735
 30
0.0
 40
0.28
  1
1. STOP          2. MEASURE           3. CUT
  7
ROMANT
  0
ENDBLK
  5
2966E
  8
0
  0
BLOCK
  8
0
  2
*U5
 70
     1
 10
0.0
 20
0.0
 30
0.0
  3
*U5
  1

  0
TEXT
  5
29670
  8
0
 10
0.8548620384909675
 20
2.2906262224751348
 30
0.0
 40
0.1
  1
ALTINEX, INC. IS NOT RESPONSIBLE
  7
ROMANT
  0
TEXT
  5
29671
  8
0
 10
0.846403648313614
 20
2.122254235208195
 30
0.0
 40
0.1
  1
FOR ANY DAMAGE TO A TABLE
  7
ROMANT
  0
TEXT
  5
29672
  8
0
 10
0.8498825023381709
 20
1.9538822479412561
 30
0.0
 40
0.1
  1
OR DESK.
  7
ROMANT
  0
ENDBLK
  5
29674
  8
0
  0
BLOCK
  8
0
  2
*U6
 70
     1
 10
0.0
 20
0.0
 30
0.0
  3
*U6
  1

  0
SOLID
  5
29676
  8
0
  6
CONTINUOUS
 10
2.236352696884008
 20
1.7964868642961329
 30
0.0
 11
2.227383556269229
 21
1.75199488295115
 31
0.0
 12
2.4163541064412679
 22
1.75199488295115
 32
0.0
 13
2.4163541064412679
 23
1.75199488295115
 33
0.0
210
0.0
220
0.0
230
1.0
  0
SOLID
  5
29677
  8
0
  6
CONTINUOUS
 10
-2.236352696884008
 20
1.7964868642961329
 30
0.0
 11
-2.428492484585286
 21
1.7964868642961329
 31
0.0
 12
-2.4163541064412679
 22
1.75199488295115
 32
0.0
 13
-2.4163541064412679
 23
1.75199488295115
 33
0.0
210
0.0
220
0.0
230
-1.0
  0
SOLID
  5
29678
  8
0
  6
CONTINUOUS
 10
1.6356457032450891
 20
1.7964868642961329
 30
0.0
 11
1.629577873453943
 21
1.75199488295115
 31
0.0
 12
1.831833429368892
 22
1.75199488295115
 32
0.0
 13
1.831833429368892
 23
1.75199488295115
 33
0.0
  0
SOLID
  5
29679
  8
0
  6
CONTINUOUS
 10
-1.6356457032450891
 20
1.7964868642961329
 30
0.0
 11
-1.83992386909043
 21
1.7964868642961329
 31
0.0
 12
-1.831833429368892
 22
1.75199488295115
 32
0.0
 13
-1.831833429368892
 23
1.75199488295115
 33
0.0
210
0.0
220
0.0
230
-1.0
  0
SOLID
  5
2967A
  8
0
  6
CONTINUOUS
 10
1.267527977353434
 20
1.7964868642961329
 30
0.0
 11
1.2378966743766451
 21
1.7418818332992221
 31
0.0
 12
1.3407247620013969
 22
1.7418818332992221
 32
0.0
 13
1.3407247620013969
 23
1.7418818332992221
 33
0.0
210
0.0
220
0.0
230
1.0
  0
SOLID
  5
2967B
  8
0
  6
CONTINUOUS
 10
-1.267527977353434
 20
1.7964868642961329
 30
0.0
 11
-1.3322596508109219
 21
1.7964868642961329
 31
0.0
 12
-1.3407247620013969
 22
1.7418818332992221
 32
0.0
 13
-1.3407247620013969
 23
1.7418818332992221
 33
0.0
210
0.0
220
0.0
230
-1.0
  0
SOLID
  5
2967C
  8
0
  6
CONTINUOUS
 10
0.9924611825063784
 20
1.7964868642961329
 30
0.0
 11
0.9601048607437068
 21
1.733788675015953
 31
0.0
 12
1.1664056365194171
 22
1.733788675015953
 32
0.0
 13
1.1664056365194171
 23
1.733788675015953
 33
0.0
210
0.0
220
0.0
230
1.0
  0
SOLID
  5
2967D
  8
0
  6
CONTINUOUS
 10
-0.9924611825063784
 20
1.7964868642961329
 30
0.0
 11
-1.198761958282101
 21
1.7964868642961329
 31
0.0
 12
-1.1664056365194171
 22
1.733788675015953
 32
0.0
 13
-1.1664056365194171
 23
1.733788675015953
 33
0.0
210
0.0
220
0.0
230
-1.0
  0
SOLID
  5
2967E
  8
0
  6
CONTINUOUS
 10
1.975436015864438
 20
1.7964868642961329
 30
0.0
 11
1.9576560075473419
 21
1.711537247219999
 31
0.0
 12
2.0592648916267708
 22
1.711537247219999
 32
0.0
 13
2.0592648916267708
 23
1.711537247219999
 33
0.0
210
0.0
220
0.0
230
1.0
  0
SOLID
  5
2967F
  8
0
  6
CONTINUOUS
 10
-1.975436015864438
 20
1.7964868642961329
 30
0.0
 11
-2.0280184369309668
 21
1.7964868642961329
 31
0.0
 12
-2.0592648916267708
 22
1.711537247219999
 32
0.0
 13
-2.0592648916267708
 23
1.711537247219999
 33
0.0
210
0.0
220
0.0
230
-1.0
  0
SOLID
  5
29680
  8
0
  6
CONTINUOUS
 10
2.007800493312323
 20
1.711537247219999
 30
0.0
 11
2.0131668597477979
 21
1.697389851954239
 31
0.0
 12
2.064468634273886
 22
1.697389851954239
 32
0.0
 13
2.064468634273886
 23
1.697389851954239
 33
0.0
210
0.0
220
0.0
230
1.0
  0
SOLID
  5
29681
  8
0
  6
CONTINUOUS
 10
-2.007800493312323
 20
1.711537247219999
 30
0.0
 11
-2.0592648916267708
 21
1.711537247219999
 31
0.0
 12
-2.064468634273886
 22
1.697389851954239
 32
0.0
 13
-2.064468634273886
 23
1.697389851954239
 33
0.0
210
0.0
220
0.0
230
-1.0
  0
SOLID
  5
29682
  8
0
  6
CONTINUOUS
 10
1.9576560075473419
 20
1.711537247219999
 30
0.0
 11
1.954694948814552
 21
1.697389851954239
 31
0.0
 12
2.0050354517495048
 22
1.697389851954239
 32
0.0
 13
2.0050354517495048
 23
1.697389851954239
 33
0.0
210
0.0
220
0.0
230
1.0
  0
SOLID
  5
29683
  8
0
  6
CONTINUOUS
 10
-1.9576560075473419
 20
1.711537247219999
 30
0.0
 11
-2.007800493312323
 21
1.711537247219999
 31
0.0
 12
-2.0050354517495048
 22
1.697389851954239
 32
0.0
 13
-2.0050354517495048
 23
1.697389851954239
 33
0.0
210
0.0
220
0.0
230
-1.0
  0
SOLID
  5
29684
  8
0
  6
CONTINUOUS
 10
2.227383556269229
 20
1.75199488295115
 30
0.0
 11
2.2151519633704582
 21
1.6913193036013521
 31
0.0
 12
2.266683690154554
 22
1.6913193036013521
 32
0.0
 13
2.266683690154554
 23
1.6913193036013521
 33
0.0
210
0.0
220
0.0
230
1.0
  0
SOLID
  5
29685
  8
0
  6
CONTINUOUS
 10
-2.227383556269229
 20
1.75199488295115
 30
0.0
 11
-2.2788220682986049
 21
1.75199488295115
 31
0.0
 12
-2.266683690154554
 22
1.6913193036013521
 32
0.0
 13
-2.266683690154554
 23
1.6913193036013521
 33
0.0
210
0.0
220
0.0
230
-1.0
  0
SOLID
  5
29686
  8
0
  6
CONTINUOUS
 10
2.2151519633704582
 20
1.6913193036013521
 30
0.0
 11
2.2065883686468521
 21
1.64883905793982
 31
0.0
 12
2.396128007137424
 22
1.64883905793982
 32
0.0
 13
2.396128007137424
 23
1.64883905793982
 33
0.0
210
0.0
220
0.0
230
1.0
  0
SOLID
  5
29687
  8
0
  6
CONTINUOUS
 10
-2.2151519633704582
 20
1.6913193036013521
 30
0.0
 11
-2.4062410567893391
 21
1.6913193036013521
 31
0.0
 12
-2.396128007137424
 22
1.64883905793982
 32
0.0
 13
-2.396128007137424
 23
1.64883905793982
 33
0.0
210
0.0
220
0.0
230
-1.0
  0
SOLID
  5
29688
  8
0
  6
CONTINUOUS
 10
2.1271290420815272
 20
1.7964868642961329
 30
0.0
 11
2.0955048090343871
 21
1.6346807884271291
 31
0.0
 12
2.1458470356076642
 22
1.6346807884271291
 32
0.0
 13
2.1458470356076642
 23
1.6346807884271291
 33
0.0
210
0.0
220
0.0
230
1.0
  0
SOLID
  5
29689
  8
0
  6
CONTINUOUS
 10
-2.1271290420815272
 20
1.7964868642961329
 30
0.0
 11
-2.1797114631480481
 21
1.7964868642961329
 31
0.0
 12
-2.1458470356076642
 22
1.6346807884271291
 32
0.0
 13
-2.1458470356076642
 23
1.6346807884271291
 33
0.0
210
0.0
220
0.0
230
-1.0
  0
SOLID
  5
2968A
  8
0
  6
CONTINUOUS
 10
2.0131668597477979
 20
1.697389851954239
 30
0.0
 11
2.0369535573971111
 21
1.6346807884271291
 31
0.0
 12
2.0875344935438589
 22
1.6346807884271291
 32
0.0
 13
2.0875344935438589
 23
1.6346807884271291
 33
0.0
  0
SOLID
  5
2968B
  8
0
  6
CONTINUOUS
 10
-2.0131668597477979
 20
1.697389851954239
 30
0.0
 11
-2.064468634273886
 21
1.697389851954239
 31
0.0
 12
-2.0875344935438589
 22
1.6346807884271291
 32
0.0
 13
-2.0875344935438589
 23
1.6346807884271291
 33
0.0
210
0.0
220
0.0
230
-1.0
  0
SOLID
  5
2968C
  8
0
  6
CONTINUOUS
 10
1.293824625010159
 20
1.7418818332992221
 30
0.0
 11
1.3079856130845859
 21
1.6346807884271291
 31
0.0
 12
1.357343537744401
 22
1.6346807884271291
 32
0.0
 13
1.357343537744401
 23
1.6346807884271291
 33
0.0
210
0.0
220
0.0
230
1.0
  0
SOLID
  5
2968D
  8
0
  6
CONTINUOUS
 10
-1.293824625010159
 20
1.7418818332992221
 30
0.0
 11
-1.3407247620013969
 21
1.7418818332992221
 31
0.0
 12
-1.357343537744401
 22
1.6346807884271291
 32
0.0
 13
-1.357343537744401
 23
1.6346807884271291
 33
0.0
210
0.0
220
0.0
230
-1.0
  0
SOLID
  5
2968E
  8
0
  6
CONTINUOUS
 10
1.2378966743766451
 20
1.7418818332992221
 30
0.0
 11
1.179724257256086
 21
1.6346807884271291
 31
0.0
 12
1.235171655590741
 22
1.6346807884271291
 32
0.0
 13
1.235171655590741
 23
1.6346807884271291
 33
0.0
210
0.0
220
0.0
230
1.0
  0
SOLID
  5
2968F
  8
0
  6
CONTINUOUS
 10
-1.2378966743766451
 20
1.7418818332992221
 30
0.0
 11
-1.293824625010159
 21
1.7418818332992221
 31
0.0
 12
-1.235171655590741
 22
1.6346807884271291
 32
0.0
 13
-1.235171655590741
 23
1.6346807884271291
 33
0.0
210
0.0
220
0.0
230
-1.0
  0
SOLID
  5
29690
  8
0
  6
CONTINUOUS
 10
0.9418986528085078
 20
1.697389851954239
 30
0.0
 11
0.9054889554998588
 21
1.6346807884271291
 31
0.0
 12
1.1117978869607861
 22
1.6346807884271291
 32
0.0
 13
1.1117978869607861
 23
1.6346807884271291
 33
0.0
210
0.0
220
0.0
230
1.0
  0
SOLID
  5
29691
  8
0
  6
CONTINUOUS
 10
-0.9418986528085078
 20
1.697389851954239
 30
0.0
 11
-1.148199428584231
 21
1.697389851954239
 31
0.0
 12
-1.1117978869607861
 22
1.6346807884271291
 32
0.0
 13
-1.1117978869607861
 23
1.6346807884271291
 33
0.0
210
0.0
220
0.0
230
-1.0
  0
SOLID
  5
29692
  8
0
  6
CONTINUOUS
 10
2.0955048090343871
 20
1.6346807884271291
 30
0.0
 11
2.0927392361415218
 21
1.6205306745996331
 31
0.0
 12
2.1428855553182138
 22
1.6205306745996331
 32
0.0
 13
2.1428855553182138
 23
1.6205306745996331
 33
0.0
210
0.0
220
0.0
230
1.0
  0
SOLID
  5
29693
  8
0
  6
CONTINUOUS
 10
-2.0955048090343871
 20
1.6346807884271291
 30
0.0
 11
-2.1458470356076642
 21
1.6346807884271291
 31
0.0
 12
-2.1428855553182138
 22
1.6205306745996331
 32
0.0
 13
-2.1428855553182138
 23
1.6205306745996331
 33
0.0
210
0.0
220
0.0
230
-1.0
  0
SOLID
  5
29694
  8
0
  6
CONTINUOUS
 10
2.0369535573971111
 20
1.6346807884271291
 30
0.0
 11
2.0423209550329009
 21
1.6205306745996331
 31
0.0
 12
2.0927392361415218
 22
1.6205306745996331
 32
0.0
 13
2.0927392361415218
 23
1.6205306745996331
 33
0.0
  0
SOLID
  5
29695
  8
0
  6
CONTINUOUS
 10
-2.0369535573971111
 20
1.6346807884271291
 30
0.0
 11
-2.0875344935438589
 21
1.6346807884271291
 31
0.0
 12
-2.0927392361415218
 22
1.6205306745996331
 32
0.0
 13
-2.0927392361415218
 23
1.6205306745996331
 33
0.0
210
0.0
220
0.0
230
-1.0
  0
SOLID
  5
29696
  8
0
  6
CONTINUOUS
 10
1.179724257256086
 20
1.6346807884271291
 30
0.0
 11
1.1566783439282291
 21
1.5922114170125301
 31
0.0
 12
1.3639273258066129
 22
1.5922114170125301
 32
0.0
 13
1.3639273258066129
 23
1.5922114170125301
 33
0.0
210
0.0
220
0.0
230
1.0
  0
SOLID
  5
29697
  8
0
  6
CONTINUOUS
 10
-1.179724257256086
 20
1.6346807884271291
 30
0.0
 11
-1.357343537744401
 21
1.6346807884271291
 31
0.0
 12
-1.3639273258066129
 22
1.5922114170125301
 32
0.0
 13
-1.3639273258066129
 23
1.5922114170125301
 33
0.0
210
0.0
220
0.0
230
-1.0
  0
SOLID
  5
29698
  8
0
  6
CONTINUOUS
 10
2.2065883686468521
 20
1.64883905793982
 30
0.0
 11
2.192318085592456
 21
1.578050428938103
 31
0.0
 12
2.2424096524282291
 22
1.578050428938103
 32
0.0
 13
2.2424096524282291
 23
1.578050428938103
 33
0.0
210
0.0
220
0.0
230
1.0
  0
SOLID
  5
29699
  8
0
  6
CONTINUOUS
 10
-2.2065883686468521
 20
1.64883905793982
 30
0.0
 11
-2.2585932504330328
 21
1.64883905793982
 31
0.0
 12
-2.2424096524282291
 22
1.578050428938103
 32
0.0
 13
-2.2424096524282291
 23
1.578050428938103
 33
0.0
210
0.0
220
0.0
230
-1.0
  0
SOLID
  5
2969A
  8
0
  6
CONTINUOUS
 10
1.4596786393016641
 20
1.7964868642961329
 30
0.0
 11
1.413959755908206
 21
1.578050428938103
 31
0.0
 12
1.4657464690928239
 22
1.578050428938103
 32
0.0
 13
1.4657464690928239
 23
1.578050428938103
 33
0.0
210
0.0
220
0.0
230
1.0
  0
SOLID
  5
2969B
  8
0
  6
CONTINUOUS
 10
-1.4596786393016641
 20
1.7964868642961329
 30
0.0
 11
-1.5122637789299329
 21
1.7964868642961329
 31
0.0
 12
-1.4657464690928239
 22
1.578050428938103
 32
0.0
 13
-1.4657464690928239
 23
1.578050428938103
 33
0.0
210
0.0
220
0.0
230
-1.0
  0
SOLID
  5
2969C
  8
0
  6
CONTINUOUS
 10
2.192318085592456
 20
1.578050428938103
 30
0.0
 11
2.1837566830088022
 21
1.535581057523506
 31
0.0
 12
2.3840005032403151
 22
1.535581057523506
 32
0.0
 13
2.3840005032403151
 23
1.535581057523506
 33
0.0
210
0.0
220
0.0
230
1.0
  0
SOLID
  5
2969D
  8
0
  6
CONTINUOUS
 10
-2.192318085592456
 20
1.578050428938103
 30
0.0
 11
-2.396128007137424
 21
1.578050428938103
 31
0.0
 12
-2.3840005032403151
 22
1.535581057523506
 32
0.0
 13
-2.3840005032403151
 23
1.535581057523506
 33
0.0
210
0.0
220
0.0
230
-1.0
  0
SOLID
  5
2969E
  8
0
  6
CONTINUOUS
 10
2.0423209550329009
 20
1.6205306745996331
 30
0.0
 11
2.074543902453271
 21
1.535581057523506
 31
0.0
 12
2.125106432151127
 22
1.535581057523506
 32
0.0
 13
2.125106432151127
 23
1.535581057523506
 33
0.0
210
0.0
220
0.0
230
1.0
  0
SOLID
  5
2969F
  8
0
  6
CONTINUOUS
 10
-2.0423209550329009
 20
1.6205306745996331
 30
0.0
 11
-2.1428855553182138
 21
1.6205306745996331
 31
0.0
 12
-2.125106432151127
 22
1.535581057523506
 32
0.0
 13
-2.125106432151127
 23
1.535581057523506
 33
0.0
210
0.0
220
0.0
230
-1.0
  0
SOLID
  5
296A0
  8
0
  6
CONTINUOUS
 10
1.954694948814552
 20
1.697389851954239
 30
0.0
 11
1.9208282663057969
 21
1.535581057523506
 31
0.0
 12
1.9734106873723249
 22
1.535581057523506
 32
0.0
 13
1.9734106873723249
 23
1.535581057523506
 33
0.0
210
0.0
220
0.0
230
1.0
  0
SOLID
  5
296A1
  8
0
  6
CONTINUOUS
 10
-1.954694948814552
 20
1.697389851954239
 30
0.0
 11
-2.0050354517495048
 21
1.697389851954239
 31
0.0
 12
-1.9734106873723249
 22
1.535581057523506
 32
0.0
 13
-1.9734106873723249
 23
1.535581057523506
 33
0.0
210
0.0
220
0.0
230
-1.0
  0
SOLID
  5
296A2
  8
0
  6
CONTINUOUS
 10
1.872280190853103
 20
1.7964868642961329
 30
0.0
 11
1.819695051224858
 21
1.535581057523506
 31
0.0
 12
1.868232252430601
 22
1.535581057523506
 32
0.0
 13
1.868232252430601
 23
1.535581057523506
 33
0.0
210
0.0
220
0.0
230
1.0
  0
SOLID
  5
296A3
  8
0
  6
CONTINUOUS
 10
-1.872280190853103
 20
1.7964868642961329
 30
0.0
 11
-1.9248734861665819
 21
1.7964868642961329
 31
0.0
 12
-1.868232252430601
 22
1.535581057523506
 32
0.0
 13
-1.868232252430601
 23
1.535581057523506
 33
0.0
210
0.0
220
0.0
230
-1.0
  0
SOLID
  5
296A4
  8
0
  6
CONTINUOUS
 10
1.7023918309477779
 20
1.75199488295115
 30
0.0
 11
1.657886256794121
 21
1.535581057523506
 31
0.0
 12
1.7084596607389171
 22
1.535581057523506
 32
0.0
 13
1.7084596607389171
 23
1.535581057523506
 33
0.0
210
0.0
220
0.0
230
1.0
  0
SOLID
  5
296A5
  8
0
  6
CONTINUOUS
 10
-1.7023918309477779
 20
1.75199488295115
 30
0.0
 11
-1.75295164208391
 21
1.75199488295115
 31
0.0
 12
-1.7084596607389171
 22
1.535581057523506
 32
0.0
 13
-1.7084596607389171
 23
1.535581057523506
 33
0.0
210
0.0
220
0.0
230
-1.0
  0
SOLID
  5
296A6
  8
0
  6
CONTINUOUS
 10
1.413959755908206
 20
1.578050428938103
 30
0.0
 11
1.405070889743022
 21
1.535581057523506
 31
0.0
 12
1.593165457583545
 22
1.535581057523506
 32
0.0
 13
1.593165457583545
 23
1.535581057523506
 33
0.0
210
0.0
220
0.0
230
1.0
  0
SOLID
  5
296A7
  8
0
  6
CONTINUOUS
 10
-1.413959755908206
 20
1.578050428938103
 30
0.0
 11
-1.6053038357275931
 21
1.578050428938103
 31
0.0
 12
-1.593165457583545
 22
1.535581057523506
 32
0.0
 13
-1.593165457583545
 23
1.535581057523506
 33
0.0
210
0.0
220
0.0
230
-1.0
  0
SOLID
  5
296A8
  8
0
  6
CONTINUOUS
 10
1.314053442875742
 20
1.5922114170125301
 30
0.0
 11
1.322143882597274
 21
1.535581057523506
 31
0.0
 12
1.3727064122951509
 22
1.535581057523506
 32
0.0
 13
1.3727064122951509
 23
1.535581057523506
 33
0.0
210
0.0
220
0.0
230
1.0
  0
SOLID
  5
296A9
  8
0
  6
CONTINUOUS
 10
-1.314053442875742
 20
1.5922114170125301
 30
0.0
 11
-1.3639273258066129
 21
1.5922114170125301
 31
0.0
 12
-1.3727064122951509
 22
1.535581057523506
 32
0.0
 13
-1.3727064122951509
 23
1.535581057523506
 33
0.0
210
0.0
220
0.0
230
-1.0
  0
SOLID
  5
296AA
  8
0
  6
CONTINUOUS
 10
1.1566783439282291
 20
1.5922114170125301
 30
0.0
 11
1.125948000788259
 21
1.535581057523506
 31
0.0
 12
1.1846118444546141
 22
1.535581057523506
 32
0.0
 13
1.1846118444546141
 23
1.535581057523506
 33
0.0
210
0.0
220
0.0
230
1.0
  0
SOLID
  5
296AB
  8
0
  6
CONTINUOUS
 10
-1.1566783439282291
 20
1.5922114170125301
 30
0.0
 11
-1.212920227794793
 21
1.5922114170125301
 31
0.0
 12
-1.1846118444546141
 22
1.535581057523506
 32
0.0
 13
-1.1846118444546141
 23
1.535581057523506
 33
0.0
210
0.0
220
0.0
230
-1.0
  0
SOLID
  5
296AC
  8
0
  6
CONTINUOUS
 10
0.8872936218116009
 20
1.5982792468036791
 30
0.0
 11
0.8529038158716026
 21
1.535581057523506
 31
0.0
 12
1.0571819817169259
 22
1.535581057523506
 32
0.0
 13
1.0571819817169259
 23
1.535581057523506
 33
0.0
210
0.0
220
0.0
230
1.0
  0
SOLID
  5
296AD
  8
0
  6
CONTINUOUS
 10
-0.8872936218116009
 20
1.5982792468036791
 30
0.0
 11
-1.093594397587331
 21
1.5982792468036791
 31
0.0
 12
-1.0571819817169259
 22
1.535581057523506
 32
0.0
 13
-1.0571819817169259
 23
1.535581057523506
 33
0.0
210
0.0
220
0.0
230
-1.0
  0
LINE
  5
296AE
  8
0
  6
CONTINUOUS
 10
2.236352696884008
 20
1.7964868642961329
 30
0.0
 11
2.227383556269229
 21
1.75199488295115
 31
0.0
  0
LINE
  5
296AF
  8
0
  6
CONTINUOUS
 10
2.428492484585286
 20
1.7964868642961329
 30
0.0
 11
2.4163541064412679
 21
1.75199488295115
 31
0.0
  0
LINE
  5
296B0
  8
0
  6
CONTINUOUS
 10
1.6356457032450891
 20
1.7964868642961329
 30
0.0
 11
1.629577873453943
 21
1.75199488295115
 31
0.0
  0
LINE
  5
296B1
  8
0
  6
CONTINUOUS
 10
1.83992386909043
 20
1.7964868642961329
 30
0.0
 11
1.831833429368892
 21
1.75199488295115
 31
0.0
  0
LINE
  5
296B2
  8
0
  6
CONTINUOUS
 10
1.267527977353434
 20
1.7964868642961329
 30
0.0
 11
1.2378966743766451
 21
1.7418818332992221
 31
0.0
  0
LINE
  5
296B3
  8
0
  6
CONTINUOUS
 10
1.3322596508109219
 20
1.7964868642961329
 30
0.0
 11
1.3407247620013969
 21
1.7418818332992221
 31
0.0
  0
LINE
  5
296B4
  8
0
  6
CONTINUOUS
 10
0.9924611825063784
 20
1.7964868642961329
 30
0.0
 11
0.9601048607437068
 21
1.733788675015953
 31
0.0
  0
LINE
  5
296B5
  8
0
  6
CONTINUOUS
 10
1.198761958282101
 20
1.7964868642961329
 30
0.0
 11
1.1664056365194171
 21
1.733788675015953
 31
0.0
  0
LINE
  5
296B6
  8
0
  6
CONTINUOUS
 10
1.975436015864438
 20
1.7964868642961329
 30
0.0
 11
1.9576560075473419
 21
1.711537247219999
 31
0.0
  0
LINE
  5
296B7
  8
0
  6
CONTINUOUS
 10
2.0280184369309668
 20
1.7964868642961329
 30
0.0
 11
2.0592648916267708
 21
1.711537247219999
 31
0.0
  0
LINE
  5
296B8
  8
0
  6
CONTINUOUS
 10
2.0592648916267708
 20
1.711537247219999
 30
0.0
 11
2.064468634273886
 21
1.697389851954239
 31
0.0
  0
LINE
  5
296B9
  8
0
  6
CONTINUOUS
 10
1.9576560075473419
 20
1.711537247219999
 30
0.0
 11
1.954694948814552
 21
1.697389851954239
 31
0.0
  0
LINE
  5
296BA
  8
0
  6
CONTINUOUS
 10
2.227383556269229
 20
1.75199488295115
 30
0.0
 11
2.2151519633704582
 21
1.6913193036013521
 31
0.0
  0
LINE
  5
296BB
  8
0
  6
CONTINUOUS
 10
2.2788220682986049
 20
1.75199488295115
 30
0.0
 11
2.266683690154554
 21
1.6913193036013521
 31
0.0
  0
LINE
  5
296BC
  8
0
  6
CONTINUOUS
 10
2.2151519633704582
 20
1.6913193036013521
 30
0.0
 11
2.2065883686468521
 21
1.64883905793982
 31
0.0
  0
LINE
  5
296BD
  8
0
  6
CONTINUOUS
 10
2.4062410567893391
 20
1.6913193036013521
 30
0.0
 11
2.396128007137424
 21
1.64883905793982
 31
0.0
  0
LINE
  5
296BE
  8
0
  6
CONTINUOUS
 10
2.1271290420815272
 20
1.7964868642961329
 30
0.0
 11
2.0955048090343871
 21
1.6346807884271291
 31
0.0
  0
LINE
  5
296BF
  8
0
  6
CONTINUOUS
 10
2.1797114631480481
 20
1.7964868642961329
 30
0.0
 11
2.1458470356076642
 21
1.6346807884271291
 31
0.0
  0
LINE
  5
296C0
  8
0
  6
CONTINUOUS
 10
2.0131668597477979
 20
1.697389851954239
 30
0.0
 11
2.0369535573971111
 21
1.6346807884271291
 31
0.0
  0
LINE
  5
296C1
  8
0
  6
CONTINUOUS
 10
2.064468634273886
 20
1.697389851954239
 30
0.0
 11
2.0875344935438589
 21
1.6346807884271291
 31
0.0
  0
LINE
  5
296C2
  8
0
  6
CONTINUOUS
 10
1.293824625010159
 20
1.7418818332992221
 30
0.0
 11
1.3079856130845859
 21
1.6346807884271291
 31
0.0
  0
LINE
  5
296C3
  8
0
  6
CONTINUOUS
 10
1.3407247620013969
 20
1.7418818332992221
 30
0.0
 11
1.357343537744401
 21
1.6346807884271291
 31
0.0
  0
LINE
  5
296C4
  8
0
  6
CONTINUOUS
 10
1.2378966743766451
 20
1.7418818332992221
 30
0.0
 11
1.179724257256086
 21
1.6346807884271291
 31
0.0
  0
LINE
  5
296C5
  8
0
  6
CONTINUOUS
 10
1.293824625010159
 20
1.7418818332992221
 30
0.0
 11
1.235171655590741
 21
1.6346807884271291
 31
0.0
  0
LINE
  5
296C6
  8
0
  6
CONTINUOUS
 10
0.9418986528085078
 20
1.697389851954239
 30
0.0
 11
0.9054889554998588
 21
1.6346807884271291
 31
0.0
  0
LINE
  5
296C7
  8
0
  6
CONTINUOUS
 10
1.148199428584231
 20
1.697389851954239
 30
0.0
 11
1.1117978869607861
 21
1.6346807884271291
 31
0.0
  0
LINE
  5
296C8
  8
0
  6
CONTINUOUS
 10
2.1458470356076642
 20
1.6346807884271291
 30
0.0
 11
2.1428855553182138
 21
1.6205306745996331
 31
0.0
  0
LINE
  5
296C9
  8
0
  6
CONTINUOUS
 10
2.0369535573971111
 20
1.6346807884271291
 30
0.0
 11
2.0423209550329009
 21
1.6205306745996331
 31
0.0
  0
LINE
  5
296CA
  8
0
  6
CONTINUOUS
 10
1.179724257256086
 20
1.6346807884271291
 30
0.0
 11
1.1566783439282291
 21
1.5922114170125301
 31
0.0
  0
LINE
  5
296CB
  8
0
  6
CONTINUOUS
 10
1.357343537744401
 20
1.6346807884271291
 30
0.0
 11
1.3639273258066129
 21
1.5922114170125301
 31
0.0
  0
LINE
  5
296CC
  8
0
  6
CONTINUOUS
 10
2.2065883686468521
 20
1.64883905793982
 30
0.0
 11
2.192318085592456
 21
1.578050428938103
 31
0.0
  0
LINE
  5
296CD
  8
0
  6
CONTINUOUS
 10
2.2585932504330328
 20
1.64883905793982
 30
0.0
 11
2.2424096524282291
 21
1.578050428938103
 31
0.0
  0
LINE
  5
296CE
  8
0
  6
CONTINUOUS
 10
1.4596786393016641
 20
1.7964868642961329
 30
0.0
 11
1.413959755908206
 21
1.578050428938103
 31
0.0
  0
LINE
  5
296CF
  8
0
  6
CONTINUOUS
 10
1.5122637789299329
 20
1.7964868642961329
 30
0.0
 11
1.4657464690928239
 21
1.578050428938103
 31
0.0
  0
LINE
  5
296D0
  8
0
  6
CONTINUOUS
 10
2.192318085592456
 20
1.578050428938103
 30
0.0
 11
2.1837566830088022
 21
1.535581057523506
 31
0.0
  0
LINE
  5
296D1
  8
0
  6
CONTINUOUS
 10
2.396128007137424
 20
1.578050428938103
 30
0.0
 11
2.3840005032403151
 21
1.535581057523506
 31
0.0
  0
LINE
  5
296D2
  8
0
  6
CONTINUOUS
 10
2.0423209550329009
 20
1.6205306745996331
 30
0.0
 11
2.074543902453271
 21
1.535581057523506
 31
0.0
  0
LINE
  5
296D3
  8
0
  6
CONTINUOUS
 10
2.1428855553182138
 20
1.6205306745996331
 30
0.0
 11
2.125106432151127
 21
1.535581057523506
 31
0.0
  0
LINE
  5
296D4
  8
0
  6
CONTINUOUS
 10
1.954694948814552
 20
1.697389851954239
 30
0.0
 11
1.9208282663057969
 21
1.535581057523506
 31
0.0
  0
LINE
  5
296D5
  8
0
  6
CONTINUOUS
 10
2.0050354517495048
 20
1.697389851954239
 30
0.0
 11
1.9734106873723249
 21
1.535581057523506
 31
0.0
  0
LINE
  5
296D6
  8
0
  6
CONTINUOUS
 10
1.872280190853103
 20
1.7964868642961329
 30
0.0
 11
1.819695051224858
 21
1.535581057523506
 31
0.0
  0
LINE
  5
296D7
  8
0
  6
CONTINUOUS
 10
1.9248734861665819
 20
1.7964868642961329
 30
0.0
 11
1.868232252430601
 21
1.535581057523506
 31
0.0
  0
LINE
  5
296D8
  8
0
  6
CONTINUOUS
 10
1.7023918309477779
 20
1.75199488295115
 30
0.0
 11
1.657886256794121
 21
1.535581057523506
 31
0.0
  0
LINE
  5
296D9
  8
0
  6
CONTINUOUS
 10
1.75295164208391
 20
1.75199488295115
 30
0.0
 11
1.7084596607389171
 21
1.535581057523506
 31
0.0
  0
LINE
  5
296DA
  8
0
  6
CONTINUOUS
 10
1.413959755908206
 20
1.578050428938103
 30
0.0
 11
1.405070889743022
 21
1.535581057523506
 31
0.0
  0
LINE
  5
296DB
  8
0
  6
CONTINUOUS
 10
1.6053038357275931
 20
1.578050428938103
 30
0.0
 11
1.593165457583545
 21
1.535581057523506
 31
0.0
  0
LINE
  5
296DC
  8
0
  6
CONTINUOUS
 10
1.314053442875742
 20
1.5922114170125301
 30
0.0
 11
1.322143882597274
 21
1.535581057523506
 31
0.0
  0
LINE
  5
296DD
  8
0
  6
CONTINUOUS
 10
1.3639273258066129
 20
1.5922114170125301
 30
0.0
 11
1.3727064122951509
 21
1.535581057523506
 31
0.0
  0
LINE
  5
296DE
  8
0
  6
CONTINUOUS
 10
1.1566783439282291
 20
1.5922114170125301
 30
0.0
 11
1.125948000788259
 21
1.535581057523506
 31
0.0
  0
LINE
  5
296DF
  8
0
  6
CONTINUOUS
 10
1.212920227794793
 20
1.5922114170125301
 30
0.0
 11
1.1846118444546141
 21
1.535581057523506
 31
0.0
  0
LINE
  5
296E0
  8
0
  6
CONTINUOUS
 10
0.8872936218116009
 20
1.5982792468036791
 30
0.0
 11
0.8529038158716026
 21
1.535581057523506
 31
0.0
  0
LINE
  5
296E1
  8
0
  6
CONTINUOUS
 10
1.093594397587331
 20
1.5982792468036791
 30
0.0
 11
1.0571819817169259
 21
1.535581057523506
 31
0.0
  0
ENDBLK
  5
296E3
  8
0
  0
BLOCK
  8
0
  2
*U7
 70
     1
 10
0.0
 20
0.0
 30
0.0
  3
*U7
  1

  0
TEXT
  5
296E5
  8
0
 10
4.3187480262900646
 20
1.9041473206587769
 30
0.0
 40
0.1
  1
TNP510     TNP510C
  7
ROMANT
  0
TEXT
  5
296E6
  8
0
 10
4.3187480262900646
 20
1.7357071205678269
 30
0.0
 40
0.1
  1
TNP520     TNP520C
  7
ROMANT
  0
TEXT
  5
296E7
  8
0
 10
4.3187480262900646
 20
1.567266920476877
 30
0.0
 40
0.1
  1
TNP528     TNP528C
  7
ROMANT
  0
TEXT
  5
296E8
  8
0
 10
4.3161559389776496
 20
1.3988267203859259
 30
0.0
 40
0.1
  1
CNK240     CNK240C
  7
ROMANT
  0
ENDBLK
  5
296EA
  8
0
  0
BLOCK
  8
0
  2
*U8
 70
     1
 10
0.0
 20
0.0
 30
0.0
  3
*U8
  1

  0
SOLID
  5
296EC
  8
0
  6
CONTINUOUS
 10
2.6246774921473799
 20
1.7964868642961329
 30
0.0
 11
2.582293309372989
 21
1.7474087062082899
 31
0.0
 12
2.6488413571280178
 22
1.7474087062082899
 32
0.0
 13
2.6488413571280178
 23
1.7474087062082899
 33
0.0
  0
SOLID
  5
296ED
  8
0
  6
CONTINUOUS
 10
-2.6246774921473799
 20
1.7964868642961329
 30
0.0
 11
-2.6914236198500521
 21
1.7964868642961329
 31
0.0
 12
-2.6488413571280178
 22
1.7474087062082899
 32
0.0
 13
-2.6488413571280178
 23
1.7474087062082899
 33
0.0
210
0.0
220
0.0
230
-1.0
  0
SOLID
  5
296EE
  8
0
  6
CONTINUOUS
 10
2.582293309372989
 20
1.7474087062082899
 30
0.0
 11
2.579587427220833
 21
1.743828323501015
 31
0.0
 12
2.6457348673364951
 22
1.743828323501015
 32
0.0
 13
2.6457348673364951
 23
1.743828323501015
 33
0.0
210
0.0
220
0.0
230
1.0
  0
SOLID
  5
296EF
  8
0
  6
CONTINUOUS
 10
-2.582293309372989
 20
1.7474087062082899
 30
0.0
 11
-2.6488413571280178
 21
1.7474087062082899
 31
0.0
 12
-2.6457348673364951
 22
1.743828323501015
 32
0.0
 13
-2.6457348673364951
 23
1.743828323501015
 33
0.0
210
0.0
220
0.0
230
-1.0
  0
SOLID
  5
296F0
  8
0
  6
CONTINUOUS
 10
2.579587427220833
 20
1.743828323501015
 30
0.0
 11
2.5740415612826091
 21
1.73723581129496
 31
0.0
 12
2.640014928005153
 22
1.73723581129496
 32
0.0
 13
2.640014928005153
 23
1.73723581129496
 33
0.0
210
0.0
220
0.0
230
1.0
  0
SOLID
  5
296F1
  8
0
  6
CONTINUOUS
 10
-2.579587427220833
 20
1.743828323501015
 30
0.0
 11
-2.6457348673364951
 21
1.743828323501015
 31
0.0
 12
-2.640014928005153
 22
1.73723581129496
 32
0.0
 13
-2.640014928005153
 23
1.73723581129496
 33
0.0
210
0.0
220
0.0
230
-1.0
  0
SOLID
  5
296F2
  8
0
  6
CONTINUOUS
 10
2.5740415612826091
 20
1.73723581129496
 30
0.0
 11
2.5680498512199992
 21
1.7297434551551389
 31
0.0
 12
2.6335142464396011
 22
1.7297434551551389
 32
0.0
 13
2.6335142464396011
 23
1.7297434551551389
 33
0.0
210
0.0
220
0.0
230
1.0
  0
SOLID
  5
296F3
  8
0
  6
CONTINUOUS
 10
-2.5740415612826091
 20
1.73723581129496
 30
0.0
 11
-2.640014928005153
 21
1.73723581129496
 31
0.0
 12
-2.6335142464396011
 22
1.7297434551551389
 32
0.0
 13
-2.6335142464396011
 23
1.7297434551551389
 33
0.0
210
0.0
220
0.0
230
-1.0
  0
SOLID
  5
296F4
  8
0
  6
CONTINUOUS
 10
2.5680498512199992
 20
1.7297434551551389
 30
0.0
 11
2.5619059017003241
 21
1.7230775417824711
 31
0.0
 12
2.6277306211859961
 22
1.7230775417824711
 32
0.0
 13
2.6277306211859961
 23
1.7230775417824711
 33
0.0
210
0.0
220
0.0
230
1.0
  0
SOLID
  5
296F5
  8
0
  6
CONTINUOUS
 10
-2.5680498512199992
 20
1.7297434551551389
 30
0.0
 11
-2.6335142464396011
 21
1.7297434551551389
 31
0.0
 12
-2.6277306211859961
 22
1.7230775417824711
 32
0.0
 13
-2.6277306211859961
 23
1.7230775417824711
 33
0.0
210
0.0
220
0.0
230
-1.0
  0
SOLID
  5
296F6
  8
0
  6
CONTINUOUS
 10
2.5619059017003241
 20
1.7230775417824711
 30
0.0
 11
2.5553133894944748
 21
1.7155090659139409
 31
0.0
 12
2.6211638949599991
 22
1.7155090659139409
 32
0.0
 13
2.6211638949599991
 23
1.7155090659139409
 33
0.0
210
0.0
220
0.0
230
1.0
  0
SOLID
  5
296F7
  8
0
  6
CONTINUOUS
 10
-2.5619059017003241
 20
1.7230775417824711
 30
0.0
 11
-2.6277306211859961
 21
1.7230775417824711
 31
0.0
 12
-2.6211638949599991
 22
1.7155090659139409
 32
0.0
 13
-2.6211638949599991
 23
1.7155090659139409
 33
0.0
210
0.0
220
0.0
230
-1.0
  0
SOLID
  5
296F8
  8
0
  6
CONTINUOUS
 10
2.4487213024508701
 20
1.7964868642961329
 30
0.0
 11
2.491196110988946
 21
1.711537247219991
 31
0.0
 12
2.5457984234241202
 22
1.711537247219991
 32
0.0
 13
2.5457984234241202
 23
1.711537247219991
 33
0.0
210
0.0
220
0.0
230
1.0
  0
SOLID
  5
296F9
  8
0
  6
CONTINUOUS
 10
-2.4487213024508701
 20
1.7964868642961329
 30
0.0
 11
-2.5033290520095242
 21
1.7964868642961329
 31
0.0
 12
-2.5457984234241202
 22
1.711537247219991
 32
0.0
 13
-2.5457984234241202
 23
1.711537247219991
 33
0.0
210
0.0
220
0.0
230
-1.0
  0
SOLID
  5
296FA
  8
0
  6
CONTINUOUS
 10
2.491196110988946
 20
1.711537247219991
 30
0.0
 11
2.491495152779724
 21
1.710939163638435
 31
0.0
 12
2.5458718245909431
 22
1.710939163638435
 32
0.0
 13
2.5458718245909431
 23
1.710939163638435
 33
0.0
210
0.0
220
0.0
230
1.0
  0
SOLID
  5
296FB
  8
0
  6
CONTINUOUS
 10
-2.491196110988946
 20
1.711537247219991
 30
0.0
 11
-2.5457984234241202
 21
1.711537247219991
 31
0.0
 12
-2.5458718245909431
 22
1.710939163638435
 32
0.0
 13
-2.5458718245909431
 23
1.710939163638435
 33
0.0
210
0.0
220
0.0
230
-1.0
  0
SOLID
  5
296FC
  8
0
  6
CONTINUOUS
 10
2.491495152779724
 20
1.710939163638435
 30
0.0
 11
2.492244116537552
 21
1.7094412361227791
 31
0.0
 12
2.5463965070056851
 22
1.7094412361227791
 32
0.0
 13
2.5463965070056851
 23
1.7094412361227791
 33
0.0
210
0.0
220
0.0
230
1.0
  0
SOLID
  5
296FD
  8
0
  6
CONTINUOUS
 10
-2.491495152779724
 20
1.710939163638435
 30
0.0
 11
-2.5458718245909431
 21
1.710939163638435
 31
0.0
 12
-2.5463965070056851
 22
1.7094412361227791
 32
0.0
 13
-2.5463965070056851
 23
1.7094412361227791
 33
0.0
210
0.0
220
0.0
230
-1.0
  0
SOLID
  5
296FE
  8
0
  6
CONTINUOUS
 10
2.5553133894944748
 20
1.7155090659139409
 30
0.0
 11
2.5478210333544982
 21
1.707492027359222
 31
0.0
 12
2.614207976985679
 22
1.707492027359222
 32
0.0
 13
2.614207976985679
 23
1.707492027359222
 33
0.0
210
0.0
220
0.0
230
1.0
  0
SOLID
  5
296FF
  8
0
  6
CONTINUOUS
 10
-2.5553133894944748
 20
1.7155090659139409
 30
0.0
 11
-2.6211638949599991
 21
1.7155090659139409
 31
0.0
 12
-2.614207976985679
 22
1.707492027359222
 32
0.0
 13
-2.614207976985679
 23
1.707492027359222
 33
0.0
210
0.0
220
0.0
230
-1.0
  0
SOLID
  5
29700
  8
0
  6
CONTINUOUS
 10
2.492244116537552
 20
1.7094412361227791
 30
0.0
 11
2.4932187209193311
 21
1.707492027359222
 31
0.0
 12
2.5478210333544982
 22
1.707492027359222
 32
0.0
 13
2.5478210333544982
 23
1.707492027359222
 33
0.0
  0
SOLID
  5
29701
  8
0
  6
CONTINUOUS
 10
-2.492244116537552
 20
1.7094412361227791
 30
0.0
 11
-2.5463965070056851
 21
1.7094412361227791
 31
0.0
 12
-2.5478210333544982
 22
1.707492027359222
 32
0.0
 13
-2.5478210333544982
 23
1.707492027359222
 33
0.0
210
0.0
220
0.0
230
-1.0
  0
SOLID
  5
29702
  8
0
  6
CONTINUOUS
 10
2.4932187209193311
 20
1.707492027359222
 30
0.0
 11
2.5134421016614432
 21
1.667045265875005
 31
0.0
 12
2.5791146749776099
 22
1.667045265875005
 32
0.0
 13
2.5791146749776099
 23
1.667045265875005
 33
0.0
210
0.0
220
0.0
230
1.0
  0
SOLID
  5
29703
  8
0
  6
CONTINUOUS
 10
-2.4932187209193311
 20
1.707492027359222
 30
0.0
 11
-2.614207976985679
 21
1.707492027359222
 31
0.0
 12
-2.5791146749776099
 22
1.667045265875005
 32
0.0
 13
-2.5791146749776099
 23
1.667045265875005
 33
0.0
210
0.0
220
0.0
230
-1.0
  0
SOLID
  5
29704
  8
0
  6
CONTINUOUS
 10
2.5134421016614432
 20
1.667045265875005
 30
0.0
 11
2.5063469476403761
 21
1.658954826153467
 31
0.0
 12
2.5720950710808479
 22
1.658954826153467
 32
0.0
 13
2.5720950710808479
 23
1.658954826153467
 33
0.0
210
0.0
220
0.0
230
1.0
  0
SOLID
  5
29705
  8
0
  6
CONTINUOUS
 10
-2.5134421016614432
 20
1.667045265875005
 30
0.0
 11
-2.5791146749776099
 21
1.667045265875005
 31
0.0
 12
-2.5720950710808479
 22
1.658954826153467
 32
0.0
 13
-2.5720950710808479
 23
1.658954826153467
 33
0.0
210
0.0
220
0.0
230
-1.0
  0
SOLID
  5
29706
  8
0
  6
CONTINUOUS
 10
2.5063469476403761
 20
1.658954826153467
 30
0.0
 11
2.4708759457837299
 21
1.618508064669262
 31
0.0
 12
2.5926499972654651
 22
1.618508064669262
 32
0.0
 13
2.5926499972654651
 23
1.618508064669262
 33
0.0
210
0.0
220
0.0
230
1.0
  0
SOLID
  5
29707
  8
0
  6
CONTINUOUS
 10
-2.5063469476403761
 20
1.658954826153467
 30
0.0
 11
-2.5720950710808479
 21
1.658954826153467
 31
0.0
 12
-2.5926499972654651
 22
1.618508064669262
 32
0.0
 13
-2.5926499972654651
 23
1.618508064669262
 33
0.0
210
0.0
220
0.0
230
-1.0
  0
SOLID
  5
29708
  8
0
  6
CONTINUOUS
 10
2.4708759457837299
 20
1.618508064669262
 30
0.0
 11
2.4355179959825461
 21
1.5781902138242621
 31
0.0
 12
2.50132218488223
 22
1.5781902138242621
 32
0.0
 13
2.50132218488223
 23
1.5781902138242621
 33
0.0
210
0.0
220
0.0
230
1.0
  0
SOLID
  5
29709
  8
0
  6
CONTINUOUS
 10
-2.4708759457837299
 20
1.618508064669262
 30
0.0
 11
-2.537705265140846
 21
1.618508064669262
 31
0.0
 12
-2.50132218488223
 22
1.5781902138242621
 32
0.0
 13
-2.50132218488223
 23
1.5781902138242621
 33
0.0
210
0.0
220
0.0
230
-1.0
  0
SOLID
  5
2970A
  8
0
  6
CONTINUOUS
 10
2.4355179959825461
 20
1.5781902138242621
 30
0.0
 11
2.4336216189242839
 21
1.576027819007515
 31
0.0
 12
2.499281113586949
 22
1.576027819007515
 32
0.0
 13
2.499281113586949
 23
1.576027819007515
 33
0.0
  0
SOLID
  5
2970B
  8
0
  6
CONTINUOUS
 10
-2.4355179959825461
 20
1.5781902138242621
 30
0.0
 11
-2.50132218488223
 21
1.5781902138242621
 31
0.0
 12
-2.499281113586949
 22
1.576027819007515
 32
0.0
 13
-2.499281113586949
 23
1.576027819007515
 33
0.0
210
0.0
220
0.0
230
-1.0
  0
SOLID
  5
2970C
  8
0
  6
CONTINUOUS
 10
2.537705265140846
 20
1.618508064669262
 30
0.0
 11
2.5781629008719911
 21
1.535581057523506
 31
0.0
 12
2.6347932603610249
 22
1.535581057523506
 32
0.0
 13
2.6347932603610249
 23
1.535581057523506
 33
0.0
  0
SOLID
  5
2970D
  8
0
  6
CONTINUOUS
 10
-2.537705265140846
 20
1.618508064669262
 30
0.0
 11
-2.5926499972654651
 21
1.618508064669262
 31
0.0
 12
-2.6347932603610249
 22
1.535581057523506
 32
0.0
 13
-2.6347932603610249
 23
1.535581057523506
 33
0.0
210
0.0
220
0.0
230
-1.0
  0
SOLID
  5
2970E
  8
0
  6
CONTINUOUS
 10
2.4336216189242839
 20
1.576027819007515
 30
0.0
 11
2.3981506170678091
 21
1.535581057523506
 31
0.0
 12
2.4628714162783711
 22
1.535581057523506
 32
0.0
 13
2.4628714162783711
 23
1.535581057523506
 33
0.0
  0
SOLID
  5
2970F
  8
0
  6
CONTINUOUS
 10
-2.4336216189242839
 20
1.576027819007515
 30
0.0
 11
-2.499281113586949
 21
1.576027819007515
 31
0.0
 12
-2.4628714162783711
 22
1.535581057523506
 32
0.0
 13
-2.4628714162783711
 23
1.535581057523506
 33
0.0
210
0.0
220
0.0
230
-1.0
  0
LINE
  5
29710
  8
0
  6
CONTINUOUS
 10
2.6246774921473799
 20
1.7964868642961329
 30
0.0
 11
2.582293309372989
 21
1.7474087062082899
 31
0.0
  0
LINE
  5
29711
  8
0
  6
CONTINUOUS
 10
2.6914236198500521
 20
1.7964868642961329
 30
0.0
 11
2.6488413571280178
 21
1.7474087062082899
 31
0.0
  0
LINE
  5
29712
  8
0
  6
CONTINUOUS
 10
2.582293309372989
 20
1.7474087062082899
 30
0.0
 11
2.579587427220833
 21
1.743828323501015
 31
0.0
  0
LINE
  5
29713
  8
0
  6
CONTINUOUS
 10
2.6488413571280178
 20
1.7474087062082899
 30
0.0
 11
2.6457348673364951
 21
1.743828323501015
 31
0.0
  0
LINE
  5
29714
  8
0
  6
CONTINUOUS
 10
2.579587427220833
 20
1.743828323501015
 30
0.0
 11
2.5740415612826091
 21
1.73723581129496
 31
0.0
  0
LINE
  5
29715
  8
0
  6
CONTINUOUS
 10
2.6457348673364951
 20
1.743828323501015
 30
0.0
 11
2.640014928005153
 21
1.73723581129496
 31
0.0
  0
LINE
  5
29716
  8
0
  6
CONTINUOUS
 10
2.5740415612826091
 20
1.73723581129496
 30
0.0
 11
2.5680498512199992
 21
1.7297434551551389
 31
0.0
  0
LINE
  5
29717
  8
0
  6
CONTINUOUS
 10
2.640014928005153
 20
1.73723581129496
 30
0.0
 11
2.6335142464396011
 21
1.7297434551551389
 31
0.0
  0
LINE
  5
29718
  8
0
  6
CONTINUOUS
 10
2.5680498512199992
 20
1.7297434551551389
 30
0.0
 11
2.5619059017003241
 21
1.7230775417824711
 31
0.0
  0
LINE
  5
29719
  8
0
  6
CONTINUOUS
 10
2.6335142464396011
 20
1.7297434551551389
 30
0.0
 11
2.6277306211859961
 21
1.7230775417824711
 31
0.0
  0
LINE
  5
2971A
  8
0
  6
CONTINUOUS
 10
2.5619059017003241
 20
1.7230775417824711
 30
0.0
 11
2.5553133894944748
 21
1.7155090659139409
 31
0.0
  0
LINE
  5
2971B
  8
0
  6
CONTINUOUS
 10
2.6277306211859961
 20
1.7230775417824711
 30
0.0
 11
2.6211638949599991
 21
1.7155090659139409
 31
0.0
  0
LINE
  5
2971C
  8
0
  6
CONTINUOUS
 10
2.4487213024508701
 20
1.7964868642961329
 30
0.0
 11
2.491196110988946
 21
1.711537247219991
 31
0.0
  0
LINE
  5
2971D
  8
0
  6
CONTINUOUS
 10
2.5033290520095242
 20
1.7964868642961329
 30
0.0
 11
2.5457984234241202
 21
1.711537247219991
 31
0.0
  0
LINE
  5
2971E
  8
0
  6
CONTINUOUS
 10
2.491196110988946
 20
1.711537247219991
 30
0.0
 11
2.491495152779724
 21
1.710939163638435
 31
0.0
  0
LINE
  5
2971F
  8
0
  6
CONTINUOUS
 10
2.5457984234241202
 20
1.711537247219991
 30
0.0
 11
2.5458718245909431
 21
1.710939163638435
 31
0.0
  0
LINE
  5
29720
  8
0
  6
CONTINUOUS
 10
2.491495152779724
 20
1.710939163638435
 30
0.0
 11
2.492244116537552
 21
1.7094412361227791
 31
0.0
  0
LINE
  5
29721
  8
0
  6
CONTINUOUS
 10
2.5458718245909431
 20
1.710939163638435
 30
0.0
 11
2.5463965070056851
 21
1.7094412361227791
 31
0.0
  0
LINE
  5
29722
  8
0
  6
CONTINUOUS
 10
2.5553133894944748
 20
1.7155090659139409
 30
0.0
 11
2.5478210333544982
 21
1.707492027359222
 31
0.0
  0
LINE
  5
29723
  8
0
  6
CONTINUOUS
 10
2.6211638949599991
 20
1.7155090659139409
 30
0.0
 11
2.614207976985679
 21
1.707492027359222
 31
0.0
  0
LINE
  5
29724
  8
0
  6
CONTINUOUS
 10
2.492244116537552
 20
1.7094412361227791
 30
0.0
 11
2.4932187209193311
 21
1.707492027359222
 31
0.0
  0
LINE
  5
29725
  8
0
  6
CONTINUOUS
 10
2.5463965070056851
 20
1.7094412361227791
 30
0.0
 11
2.5478210333544982
 21
1.707492027359222
 31
0.0
  0
LINE
  5
29726
  8
0
  6
CONTINUOUS
 10
2.4932187209193311
 20
1.707492027359222
 30
0.0
 11
2.5134421016614432
 21
1.667045265875005
 31
0.0
  0
LINE
  5
29727
  8
0
  6
CONTINUOUS
 10
2.614207976985679
 20
1.707492027359222
 30
0.0
 11
2.5791146749776099
 21
1.667045265875005
 31
0.0
  0
LINE
  5
29728
  8
0
  6
CONTINUOUS
 10
2.5134421016614432
 20
1.667045265875005
 30
0.0
 11
2.5063469476403761
 21
1.658954826153467
 31
0.0
  0
LINE
  5
29729
  8
0
  6
CONTINUOUS
 10
2.5791146749776099
 20
1.667045265875005
 30
0.0
 11
2.5720950710808479
 21
1.658954826153467
 31
0.0
  0
LINE
  5
2972A
  8
0
  6
CONTINUOUS
 10
2.5063469476403761
 20
1.658954826153467
 30
0.0
 11
2.4708759457837299
 21
1.618508064669262
 31
0.0
  0
LINE
  5
2972B
  8
0
  6
CONTINUOUS
 10
2.5720950710808479
 20
1.658954826153467
 30
0.0
 11
2.5926499972654651
 21
1.618508064669262
 31
0.0
  0
LINE
  5
2972C
  8
0
  6
CONTINUOUS
 10
2.4708759457837299
 20
1.618508064669262
 30
0.0
 11
2.4355179959825461
 21
1.5781902138242621
 31
0.0
  0
LINE
  5
2972D
  8
0
  6
CONTINUOUS
 10
2.537705265140846
 20
1.618508064669262
 30
0.0
 11
2.50132218488223
 21
1.5781902138242621
 31
0.0
  0
LINE
  5
2972E
  8
0
  6
CONTINUOUS
 10
2.4355179959825461
 20
1.5781902138242621
 30
0.0
 11
2.4336216189242839
 21
1.576027819007515
 31
0.0
  0
LINE
  5
2972F
  8
0
  6
CONTINUOUS
 10
2.50132218488223
 20
1.5781902138242621
 30
0.0
 11
2.499281113586949
 21
1.576027819007515
 31
0.0
  0
LINE
  5
29730
  8
0
  6
CONTINUOUS
 10
2.537705265140846
 20
1.618508064669262
 30
0.0
 11
2.5781629008719911
 21
1.535581057523506
 31
0.0
  0
LINE
  5
29731
  8
0
  6
CONTINUOUS
 10
2.5926499972654651
 20
1.618508064669262
 30
0.0
 11
2.6347932603610249
 21
1.535581057523506
 31
0.0
  0
LINE
  5
29732
  8
0
  6
CONTINUOUS
 10
2.4336216189242839
 20
1.576027819007515
 30
0.0
 11
2.3981506170678091
 21
1.535581057523506
 31
0.0
  0
LINE
  5
29733
  8
0
  6
CONTINUOUS
 10
2.499281113586949
 20
1.576027819007515
 30
0.0
 11
2.4628714162783711
 21
1.535581057523506
 31
0.0
  0
ENDBLK
  5
29735
  8
0
  0
BLOCK
  8
0
  2
*U9
 70
     1
 10
0.0
 20
0.0
 30
0.0
  3
*U9
  1

  0
TEXT
  5
29737
  8
0
 10
2.755808517152126
 20
1.809217805991582
 30
0.0
 40
0.04
  1
R
  7
ROMANT
  0
ENDBLK
  5
29739
  8
0
  0
BLOCK
  8
0
  2
*U10
 70
     1
 10
0.0
 20
0.0
 30
0.0
  3
*U10
  1

  0
TEXT
  5
2973E
  8
0
 10
1.549918011557494
 20
3.5734483618149429
 30
0.0
 40
0.09
  1
inch.
 50
90.0
  7
ROMANT
  0
ENDBLK
  5
29740
  8
0
  0
BLOCK
  8
0
  2
*U11
 70
     1
 10
0.0
 20
0.0
 30
0.0
  3
*U11
  1

  0
TEXT
  5
29742
  8
0
 10
1.4496350283046611
 20
4.7178866014600063
 30
0.0
 40
0.11
  1
MEASURE  WITH A RULER.
 50
90.0
  7
ROMANT
  0
ENDBLK
  5
29744
  8
0
  0
BLOCK
  8
0
  2
*U12
 70
     1
 10
0.0
 20
0.0
 30
0.0
  3
*U12
  1

  0
TEXT
  5
29746
  8
0
 10
0.8312011245036565
 20
9.7517250676598888
 30
0.0
 40
0.096
  1
VERIFY ALL DIMENSIONS
  7
ROMANT
  0
TEXT
  5
29747
  8
0
 10
0.8288436893058394
 20
9.5900879598836273
 30
0.0
 40
0.096
  1
TO ENSURE THAT THIS
  7
ROMANT
  0
TEXT
  5
29748
  8
0
 10
0.8232120385554983
 20
9.4284508521073658
 30
0.0
 40
0.096
  1
PRINT IS 1 TO 1 SCALE.
  7
ROMANT
  0
ENDBLK
  5
2974A
  8
0
  0
BLOCK
  8
0
  2
*U13
 70
     1
 10
0.0
 20
0.0
 30
0.0
  3
*U13
  1

  0
TEXT
  5
2974C
  8
0
 10
2.0177356775936128
 20
3.5814514655534668
 30
0.0
 40
0.09
  1
cm.
 50
90.0
  7
ROMANT
  0
ENDBLK
  5
2974E
  8
0
  0
BLOCK
  8
0
  2
*U14
 70
     1
 10
0.0
 20
0.0
 30
0.0
  3
*U14
  1

  0
TEXT
  5
29750
  8
0
 10
1.7953274182007311
 20
3.4913317120829039
 30
0.0
 40
0.09
  1
0"
 50
90.0
  7
ROMANT
  0
ENDBLK
  5
29752
  8
0
  0
BLOCK
  8
0
  2
*U15
 70
     1
 10
0.0
 20
0.0
 30
0.0
  3
*U15
  1

  0
TEXT
  5
29754
  8
0
 10
2.263336187499323
 20
3.5228317120829069
 30
0.0
 40
0.09
  1
0
 50
90.0
  7
ROMANT
  0
ENDBLK
  5
29756
  8
0
  0
BLOCK
  8
0
  2
*U16
 70
     1
 10
0.0
 20
0.0
 30
0.0
  3
*U16
  1

  0
TEXT
  5
29758
  8
0
 10
2.263336187499323
 20
3.9150956518492301
 30
0.0
 40
0.09
  1
1
 50
90.0
  7
ROMANT
  0
ENDBLK
  5
2975A
  8
0
  0
BLOCK
  8
0
  2
*U17
 70
     1
 10
0.0
 20
0.0
 30
0.0
  3
*U17
  1

  0
TEXT
  5
2975C
  8
0
 10
1.7953274182007311
 20
4.4828596793407476
 30
0.0
 40
0.09
  1
1"
 50
90.0
  7
ROMANT
  0
ENDBLK
  5
2975E
  8
0
  0
BLOCK
  8
0
  2
*U18
 70
     1
 10
0.0
 20
0.0
 30
0.0
  3
*U18
  1

  0
TEXT
  5
29760
  8
0
 10
2.263336187499323
 20
4.3188024731316297
 30
0.0
 40
0.09
  1
2
 50
90.0
  7
ROMANT
  0
ENDBLK
  5
29762
  8
0
  0
BLOCK
  8
0
  2
*U19
 70
     1
 10
0.0
 20
0.0
 30
0.0
  3
*U19
  1

  0
TEXT
  5
29764
  8
0
 10
2.263336187499323
 20
4.7109062930497743
 30
0.0
 40
0.09
  1
3
 50
90.0
  7
ROMANT
  0
ENDBLK
  5
29766
  8
0
  0
BLOCK
  8
0
  2
*U20
 70
     1
 10
0.0
 20
0.0
 30
0.0
  3
*U20
  1

  0
TEXT
  5
29768
  8
0
 10
1.7953274182007311
 20
5.4928665006231503
 30
0.0
 40
0.09
  1
2"
 50
90.0
  7
ROMANT
  0
ENDBLK
  5
2976A
  8
0
  0
BLOCK
  8
0
  2
*U21
 70
     1
 10
0.0
 20
0.0
 30
0.0
  3
*U21
  1

  0
TEXT
  5
2976C
  8
0
 10
2.2629678382496641
 20
5.1082897855463623
 30
0.0
 40
0.09
  1
4
 50
90.0
  7
ROMANT
  0
ENDBLK
  5
2976E
  8
0
  0
BLOCK
  8
0
  2
*U22
 70
     1
 10
0.0
 20
0.0
 30
0.0
  3
*U22
  1

  0
TEXT
  5
29770
  8
0
 10
2.2629678382496641
 20
5.4983676845913809
 30
0.0
 40
0.09
  1
5
 50
90.0
  7
ROMANT
  0
ENDBLK
  5
29772
  8
0
  0
BLOCK
  8
0
  2
*U23
 70
     1
 10
0.0
 20
0.0
 30
0.0
  3
*U23
  1

  0
TEXT
  5
29774
  8
0
 10
1.7953274182007311
 20
6.4912703205412932
 30
0.0
 40
0.09
  1
3"
 50
90.0
  7
ROMANT
  0
ENDBLK
  5
29776
  8
0
  0
BLOCK
  8
0
  2
*U24
 70
     1
 10
0.0
 20
0.0
 30
0.0
  3
*U24
  1

  0
TEXT
  5
29778
  8
0
 10
2.263336187499323
 20
5.8925588169242591
 30
0.0
 40
0.09
  1
6
 50
90.0
  7
ROMANT
  0
ENDBLK
  5
2977A
  8
0
  0
BLOCK
  8
0
  2
*U25
 70
     1
 10
0.0
 20
0.0
 30
0.0
  3
*U25
  1

  0
TEXT
  5
2977C
  8
0
 10
2.2629678382496641
 20
6.2850309860920621
 30
0.0
 40
0.09
  1
7
 50
90.0
  7
ROMANT
  0
ENDBLK
  5
2977E
  8
0
  0
BLOCK
  8
0
  2
*U26
 70
     1
 10
0.0
 20
0.0
 30
0.0
  3
*U26
  1

  0
TEXT
  5
29780
  8
0
 10
3.4700916338448371
 20
8.8383496103574011
 30
0.0
 40
0.11
  1
MEASURE  WITH A RULER.
  7
ROMANT
  0
ENDBLK
  5
29782
  8
0
  0
BLOCK
  8
0
  2
*U27
 70
     1
 10
0.0
 20
0.0
 30
0.0
  3
*U27
  1

  0
TEXT
  5
29784
  8
0
 10
0.8206614809813727
 20
8.8297007935794252
 30
0.0
 40
0.093
  1
THIS IS A PRECISION CUT-OUT TEMPLATE.
  7
ROMANT
  0
TEXT
  5
29785
  8
0
 10
0.8113312845284395
 20
8.6506979757076685
 30
0.0
 40
0.115041
  1
DO NOT SCALE OR ADJUST!
  7
ROMANT
  0
ENDBLK
  5
29787
  8
0
  0
BLOCK
  8
0
  2
*U28
 70
     1
 10
0.0
 20
0.0
 30
0.0
  3
*U28
  1

  0
TEXT
  5
29789
  8
0
 10
2.263336187499323
 20
7.4188090493557244
 30
0.0
 40
0.09
  1
10
 50
90.0
  7
ROMANT
  0
ENDBLK
  5
2978B
  8
0
  0
BLOCK
  8
0
  2
*U29
 70
     1
 10
0.0
 20
0.0
 30
0.0
  3
*U29
  1

  0
TEXT
  5
2978D
  8
0
 10
2.263336187499323
 20
6.6795904676745979
 30
0.0
 40
0.09
  1
8
 50
90.0
  7
ROMANT
  0
ENDBLK
  5
2978F
  8
0
  0
BLOCK
  8
0
  2
*U30
 70
     1
 10
0.0
 20
0.0
 30
0.0
  3
*U30
  1

  0
TEXT
  5
29791
  8
0
 10
2.263336187499323
 20
7.073167684591378
 30
0.0
 40
0.09
  1
9
 50
90.0
  7
ROMANT
  0
ENDBLK
  5
29793
  8
0
  0
BLOCK
  8
0
  2
*U31
 70
     1
 10
0.0
 20
0.0
 30
0.0
  3
*U31
  1

  0
TEXT
  5
29795
  8
0
 10
1.794959068951073
 20
7.4949538130378821
 30
0.0
 40
0.09
  1
4"
 50
90.0
  7
ROMANT
  0
ENDBLK
  5
29797
  8
0
  0
BLOCK
  8
0
  2
*U32
 70
     1
 10
0.0
 20
0.0
 30
0.0
  3
*U32
  1

  0
TEXT
  5
29799
  8
0
 10
2.2724340250637849
 20
9.0430729533738639
 30
0.0
 40
0.09
  1
0
  7
ROMANT
  0
ENDBLK
  5
2979B
  8
0
  0
BLOCK
  8
0
  2
*U33
 70
     1
 10
0.0
 20
0.0
 30
0.0
  3
*U33
  1

  0
TEXT
  5
2979D
  8
0
 10
2.6429659987760061
 20
9.0371245433493659
 30
0.0
 40
0.09
  1
1
  7
ROMANT
  0
ENDBLK
  5
2979F
  8
0
  0
BLOCK
  8
0
  2
*U34
 70
     1
 10
0.0
 20
0.0
 30
0.0
  3
*U34
  1

  0
TEXT
  5
297A1
  8
0
 10
3.0466728200584061
 20
9.0371245433493659
 30
0.0
 40
0.09
  1
2
  7
ROMANT
  0
ENDBLK
  5
297A3
  8
0
  0
BLOCK
  8
0
  2
*U35
 70
     1
 10
0.0
 20
0.0
 30
0.0
  3
*U35
  1

  0
TEXT
  5
297A5
  8
0
 10
3.4387766399765498
 20
9.0371245433493659
 30
0.0
 40
0.09
  1
3
  7
ROMANT
  0
ENDBLK
  5
297A7
  8
0
  0
BLOCK
  8
0
  2
*U36
 70
     1
 10
0.0
 20
0.0
 30
0.0
  3
*U36
  1

  0
TEXT
  5
297A9
  8
0
 10
2.2409340250637801
 20
9.5617269856884288
 30
0.0
 40
0.09
  1
0"
  7
ROMANT
  0
ENDBLK
  5
297AB
  8
0
  0
BLOCK
  8
0
  2
*U37
 70
     1
 10
0.0
 20
0.0
 30
0.0
  3
*U37
  1

  0
TEXT
  5
297AD
  8
0
 10
2.3282983519454792
 20
9.2787567021544088
 30
0.0
 40
0.09
  1
cm.
  7
ROMANT
  0
ENDBLK
  5
297AF
  8
0
  0
BLOCK
  8
0
  2
*U38
 70
     1
 10
0.0
 20
0.0
 30
0.0
  3
*U38
  1

  0
TEXT
  5
297B1
  8
0
 10
2.2984676585170072
 20
9.7981992301784526
 30
0.0
 40
0.09
  1
inch.
  7
ROMANT
  0
ENDBLK
  5
297B3
  8
0
  0
BLOCK
  8
0
  2
*U39
 70
     1
 10
0.0
 20
0.0
 30
0.0
  3
*U39
  1

  0
TEXT
  5
297B5
  8
0
 10
3.2324619923216251
 20
9.5617269856884288
 30
0.0
 40
0.09
  1
1"
  7
ROMANT
  0
ENDBLK
  5
297B7
  8
0
  0
BLOCK
  8
0
  2
*U40
 70
     1
 10
0.0
 20
0.0
 30
0.0
  3
*U40
  1

  0
TEXT
  5
297B9
  8
0
 10
3.8361601324731378
 20
9.0374928925990243
 30
0.0
 40
0.09
  1
4
  7
ROMANT
  0
ENDBLK
  5
297BB
  8
0
  0
BLOCK
  8
0
  2
*U41
 70
     1
 10
0.0
 20
0.0
 30
0.0
  3
*U41
  1

  0
TEXT
  5
297BD
  8
0
 10
4.208383395078763
 20
9.0434413026235223
 30
0.0
 40
0.09
  1
5
  7
ROMANT
  0
ENDBLK
  5
297BF
  8
0
  0
BLOCK
  8
0
  2
*U42
 70
     1
 10
0.0
 20
0.0
 30
0.0
  3
*U42
  1

  0
TEXT
  5
297C1
  8
0
 10
4.6204291638510346
 20
9.0371245433493659
 30
0.0
 40
0.09
  1
6
  7
ROMANT
  0
ENDBLK
  5
297C3
  8
0
  0
BLOCK
  8
0
  2
*U43
 70
     1
 10
0.0
 20
0.0
 30
0.0
  3
*U43
  1

  0
TEXT
  5
297C5
  8
0
 10
4.2424688136040256
 20
9.5617269856884288
 30
0.0
 40
0.09
  1
2"
  7
ROMANT
  0
ENDBLK
  5
297C7
  8
0
  0
BLOCK
  8
0
  2
*U44
 70
     1
 10
0.0
 20
0.0
 30
0.0
  3
*U44
  1

  0
TEXT
  5
297C9
  8
0
 10
5.0129013330188377
 20
9.0374928925990243
 30
0.0
 40
0.09
  1
7
  7
ROMANT
  0
ENDBLK
  5
297CB
  8
0
  0
BLOCK
  8
0
  2
*U45
 70
     1
 10
0.0
 20
0.0
 30
0.0
  3
*U45
  1

  0
TEXT
  5
297CD
  8
0
 10
5.4074608146013752
 20
9.0371245433493659
 30
0.0
 40
0.09
  1
8
  7
ROMANT
  0
ENDBLK
  5
297CF
  8
0
  0
BLOCK
  8
0
  2
*U46
 70
     1
 10
0.0
 20
0.0
 30
0.0
  3
*U46
  1

  0
TEXT
  5
297D1
  8
0
 10
5.8129411084461831
 20
9.0371245433493659
 30
0.0
 40
0.09
  1
9
  7
ROMANT
  0
ENDBLK
  5
297D3
  8
0
  0
BLOCK
  8
0
  2
*U47
 70
     1
 10
0.0
 20
0.0
 30
0.0
  3
*U47
  1

  0
TEXT
  5
297D5
  8
0
 10
5.2408726335221711
 20
9.5617269856884288
 30
0.0
 40
0.09
  1
3"
  7
ROMANT
  0
ENDBLK
  5
297D7
  8
0
  0
BLOCK
  8
0
  2
*U48
 70
     1
 10
0.0
 20
0.0
 30
0.0
  3
*U48
  1

  0
TEXT
  5
297D9
  8
0
 10
4.7242301014589323
 20
2.5192019912861201
 30
0.0
 40
0.16
  1
FRONT
  7
ROMANT
  0
ENDBLK
  5
297DB
  8
0
  0
BLOCK
  8
0
  2
*U49
 70
     1
 10
0.0
 20
0.0
 30
0.0
  3
*U49
  1

  0
TEXT
  5
297DD
  8
0
 10
4.7242301014589323
 20
2.239321397887049
 30
0.0
 40
0.16
  1
FRONT
  7
ROMANT
  0
ENDBLK
  5
297DF
  8
0
  0
BLOCK
  8
0
  2
*U50
 70
     1
 10
0.0
 20
0.0
 30
0.0
  3
*U50
  1

  0
TEXT
  5
297E1
  8
0
 10
3.028978252327899
 20
2.239321397887049
 30
0.0
 40
0.16
  1
FRONT
  7
ROMANT
  0
ENDBLK
  5
297E3
  8
0
  0
BLOCK
  8
0
  2
*U51
 70
     1
 10
0.0
 20
0.0
 30
0.0
  3
*U51
  1

  0
TEXT
  5
297E5
  8
0
 10
3.028978252327899
 20
2.5192019912861201
 30
0.0
 40
0.16
  1
FRONT
  7
ROMANT
  0
ENDBLK
  5
297E7
  8
0
  0
BLOCK
  8
0
  2
*U52
 70
     1
 10
0.0
 20
0.0
 30
0.0
  3
*U52
  1

  0
TEXT
  5
297E9
  8
0
 10
6.9417682686945179
 20
9.7440959344834397
 30
0.0
 40
0.1
  1
Document p/n:
  7
ROMANT
  0
TEXT
  5
297EA
  8
0
 10
6.9742375729237143
 20
9.5770199908727083
 30
0.0
 40
0.1
  1
250-0682-009
  7
ROMANT
  0
TEXT
  5
297EB
  8
0
 10
7.1491352536876969
 20
9.4086480036057694
 30
0.0
 40
0.1
  1
Page 1 of 1
  7
ROMANT
  0
ENDBLK
  5
297ED
  8
0
  0
BLOCK
  8
0
  2
*U53
 70
     1
 10
0.0
 20
0.0
 30
0.0
  3
*U53
  1

  0
TEXT
  5
297EF
  8
0
 10
6.168411362336605
 20
9.0430729533738639
 30
0.0
 40
0.09
  1
10
  7
ROMANT
  0
ENDBLK
  5
297F1
  8
0
  0
BLOCK
  8
0
  2
*U54
 70
     1
 10
0.0
 20
0.0
 30
0.0
  3
*U54
  1

  0
TEXT
  5
297F3
  8
0
 10
6.2445561260187601
 20
9.5620953349380873
 30
0.0
 40
0.09
  1
4"
  7
ROMANT
  0
ENDBLK
  5
297F5
  8
0
  0
BLOCK
  8
0
  2
*U55
 70
     1
 10
0.0
 20
0.0
 30
0.0
  3
*U55
  1

  0
TEXT
  5
297F7
  8
0
 10
5.6107816379586408
 20
5.5873956161476261
 30
0.0
 40
0.14
  1
7.460"
  7
ROMANS
  0
TEXT
  5
297F8
  8
0
 10
5.3530804101278093
 20
5.3534892950925999
 30
0.0
 40
0.14
  1
 [189.48mm]
  7
ROMANS
  0
ENDBLK
  5
297FA
  8
0
  0
BLOCK
  8
0
  2
*U56
 70
     1
 10
0.0
 20
0.0
 30
0.0
  3
*U56
  1

  0
TEXT
  5
297FC
  8
0
 10
3.9923776471821659
 20
4.2325168584690589
 30
0.0
 40
0.14
  1
6.130"
  7
ROMANS
  0
TEXT
  5
297FD
  8
0
 10
3.7337214398151808
 20
3.9986105374140339
 30
0.0
 40
0.14
  1
 [155.70mm]
  7
ROMANS
  0
ENDBLK
  5
297FF
  8
0
  0
BLOCK
  8
0
  2
*U57
 70
     1
 10
0.0
 20
0.0
 30
0.0
  3
*U57
  1

  0
TEXT
  5
29801
  8
0
 10
5.4726110633092224
 20
1.565847895632055
 30
0.0
 40
0.1
  1
TNP528S
  7
ROMANT
  0
ENDBLK
  5
29803
  8
0
  0
BLOCK
  8
0
  2
*U58
 70
     1
 10
0.0
 20
0.0
 30
0.0
  3
*U58
  1

  0
TEXT
  5
2983A
  8
0
 10
6.1580934064920338
 20
1.9041473206587769
 30
0.0
 40
0.1
  1
PNP400     PNP400S   PNP400C
  7
ROMANT
  0
TEXT
  5
2983B
  8
0
 10
6.1580934064920338
 20
1.7357071205678269
 30
0.0
 40
0.1
  1
PNP408     PNP408C   PNP408S
  7
ROMANT
  0
TEXT
  5
2983C
  8
0
 10
6.1640279221809831
 20
1.567266920476877
 30
0.0
 40
0.1
  1
TNP530     TNP530S
  7
ROMANT
  0
TEXT
  5
2983D
  8
0
 10
6.1614358348685681
 20
1.3988267203859259
 30
0.0
 40
0.1
  1
CNK200     CNK200C  CNK200S
  7
ROMANT
  0
ENDBLK
  5
2983F
  8
0
  0
BLOCK
  8
0
  2
*U59
 70
     1
 10
0.0
 20
0.0
 30
0.0
  3
*U59
  1

  0
TEXT
  5
29841
  8
0
 10
5.4700189759968074
 20
1.395318486683107
 30
0.0
 40
0.1
  1
CNK240S
  7
ROMANT
  0
ENDBLK
  5
29843
  8
0
  0
BLOCK
  8
0
  2
*U60
 70
     1
 10
0.0
 20
0.0
 30
0.0
  3
*U60
  1

  0
TEXT
  5
29845
  8
0
 10
6.1430837241679503
 20
1.244264626351649
 30
0.0
 40
0.1
  1
CNK260      CNK260C  CNK260S
  7
ROMANT
  0
ENDBLK
  5
29847
  8
0
  0
BLOCK
  8
0
  2
*U61
 70
     1
 10
0.0
 20
0.0
 30
0.0
  3
*U61
  1

  0
TEXT
  5
29849
  8
0
 10
4.3171413166368344
 20
1.230640758978941
 30
0.0
 40
0.1
  1
CNK210     CNK210S
  7
ROMANT
  0
ENDBLK
  5
2984B
  8
0
  0
BLOCK
  8
0
  2
*U62
 70
     1
 10
0.0
 20
0.0
 30
0.0
  3
*U62
  1

  0
TEXT
  5
2984D
  8
0
 10
5.8843425126408881
 20
7.2347053097922451
 30
0.0
 40
0.14
  1
4x R.500"
  7
ROMANS
  0
TEXT
  5
2984E
  8
0
 10
5.7537013120951848
 20
7.0007989887372188
 30
0.0
 40
0.14
  1
 [R12.70mm]
  7
ROMANS
  0
ENDBLK
  5
29850
  8
0
  0
BLOCK
  8
0
  2
*U63
 70
     1
 10
0.0
 20
0.0
 30
0.0
  3
*U63
  1

  0
TEXT
  5
29852
  8
0
 10
5.7797977870434769
 20
6.7678276684791374
 30
0.0
 40
0.14
  1
1" DRILL BIT
  7
ROMANT
  0
ENDBLK
  5
29854
  8
0
  0
BLOCK
  8
0
  2
*U64
 70
     1
 10
0.0
 20
0.0
 30
0.0
  3
*U64
  1

  0
TEXT
  5
29856
  8
0
 10
-1.0961923933351381
 20
8.4482756233489766
 30
0.0
 40
0.18
  1
\U+22051.000"
  7
SIMPLEX
  0
ENDBLK
  5
29858
  8
0
  0
BLOCK
  8
0
  2
*U65
 70
     1
 10
0.0
 20
0.0
 30
0.0
  3
*U65
  1

  0
TEXT
  5
2985A
  8
0
 10
-1.173335250477995
 20
8.0539899090632616
 30
0.0
 40
0.18
  1
[\U+220525.40]
  7
SIMPLEX
  0
ENDBLK
  5
2985C
  8
0
  0
ENDSEC
  0
SECTION
  2
ENTITIES
  0
LINE
  5
29172
  8
0
 10
2.3023974289011302
 20
9.2523237843289916
 30
0.0
 11
6.2393974289011167
 21
9.2523237843289916
 31
0.0
  0
INSERT
  5
29175
  8
0
  2
*U2
 10
0.0
 20
0.0
 30
0.0
  0
INSERT
  5
29176
  8
0
  2
*U3
 10
0.0
 20
0.0
 30
0.0
  0
INSERT
  5
29177
  8
0
  2
*U4
 10
0.0
 20
0.0
 30
0.0
  0
LINE
  5
29178
  8
TITLE
  6
ACAD_ISO07W100
 10
8.0208974289011312
 20
0.7212951159202508
 30
0.0
 11
0.5208974289011294
 21
0.7212951159202508
 31
0.0
  0
LINE
  5
29179
  8
TITLE
  6
ACAD_ISO07W100
 10
0.5208974289011294
 20
10.32129511592025
 30
0.0
 11
8.0208974289011312
 21
10.32129511592025
 31
0.0
  0
LINE
  5
2917A
  8
0
 10
2.270897428901125
 20
9.7709778166435566
 30
0.0
 11
6.270897428901125
 21
9.7709778166435566
 31
0.0
  0
LINE
  5
2917B
  8
0
 10
8.5208974289011241
 20
0.0212951159202515
 30
0.0
 11
0.0208974289011295
 21
0.0212951159202533
 31
0.0
  0
LINE
  5
2917C
  8
0
 10
0.0208974289011295
 20
11.02129511592025
 30
0.0
 11
8.5208974289011241
 21
11.02129511592025
 31
0.0
  0
LINE
  5
29180
  8
TITLE
  6
ACAD_ISO07W100
 10
0.5208974289011294
 20
10.32129511592025
 30
0.0
 11
0.520897428901133
 21
0.7212951159202508
 31
0.0
  0
LINE
  5
29181
  8
0
 10
0.0208974289011295
 20
11.02129511592025
 30
0.0
 11
0.0208974289011295
 21
0.0212951159202533
 31
0.0
  0
INSERT
  5
29184
  8
0
  2
*U5
 10
0.0
 20
0.0
 30
0.0
  0
LINE
  5
29185
  8
TITLE
 10
2.3840005032403151
 20
1.535581057523506
 30
0.0
 11
2.1837566830088022
 21
1.535581057523506
 31
0.0
  0
LINE
  5
29186
  8
TITLE
 10
2.1837566830088022
 20
1.535581057523506
 30
0.0
 11
2.236352696884008
 21
1.7964868642961329
 31
0.0
  0
INSERT
  5
29187
  8
0
  6
CONTINUOUS
  2
*U6
 10
0.0
 20
0.0
 30
0.0
1001
ACAD
1002
{
1000
R14_HATCH_DATA
1000
29187
1011
1.0
1021
0.0
1031
0.0
1021
0.0
1031
0.0
1011
0.0
1021
0.0
1031
0.0
1021
1.0
1031
0.0
1011
0.0
1021
0.0
1031
0.0
1021
0.0
1031
1.0
1040
0.0
1010
0.0
1020
0.0
1030
1.0
1000
SOLID
1070
     1
1070
     0
1071
       10
1071
        7
1070
     0
1070
     1
1071
        4
1040
1.198761958282101
1040
1.7964868642961329
1040
0.9924611825063784
1040
1.7964868642961329
1040
0.9601048607437085
1040
1.7337886750159559
1040
1.1664056365194171
1040
1.733788675015953
1071
        0
1071
        7
1070
     0
1070
     1
1071
        4
1040
1.148199428584231
1040
1.697389851954239
1040
0.9418986528085078
1040
1.697389851954239
1040
0.9054889554998588
1040
1.6346807884271291
1040
1.1117978869607861
1040
1.6346807884271291
1071
        0
1071
        7
1070
     0
1070
     1
1071
        4
1040
1.093594397587331
1040
1.5982792468036791
1040
0.8872936218116009
1040
1.5982792468036791
1040
0.8529038158716026
1040
1.535581057523506
1040
1.0571819817169259
1040
1.535581057523506
1071
        0
1071
        7
1070
     0
1070
     1
1071
        8
1040
1.3322596508109219
1040
1.7964868642961329
1040
1.267527977353434
1040
1.7964868642961329
1040
1.125948000788259
1040
1.535581057523506
1040
1.1846118444546141
1040
1.535581057523506
1040
1.212920227794793
1040
1.5922114170125301
1040
1.314053442875742
1040
1.5922114170125301
1040
1.322143882597274
1040
1.535581057523506
1040
1.3727064122951509
1040
1.535581057523506
1071
        0
1071
       22
1070
     0
1070
     1
1071
        3
1040
1.235171655590743
1040
1.6346807884271319
1040
1.293824625010159
1040
1.7418818332992221
1040
1.3079856130845859
1040
1.6346807884271291
1071
        0
1071
        7
1070
     0
1070
     1
1071
        6
1040
1.512263778929934
1040
1.796486864296136
1040
1.4596786393016641
1040
1.7964868642961329
1040
1.405070889743022
1040
1.535581057523506
1040
1.593165457583545
1040
1.535581057523506
1040
1.6053038357275931
1040
1.578050428938103
1040
1.4657464690928239
1040
1.578050428938103
1071
        0
1071
        7
1070
     0
1070
     1
1071
        8
1040
1.83992386909043
1040
1.7964868642961329
1040
1.6356457032450891
1040
1.7964868642961329
1040
1.629577873453943
1040
1.75199488295115
1040
1.7023918309477779
1040
1.75199488295115
1040
1.657886256794121
1040
1.535581057523506
1040
1.7084596607389171
1040
1.535581057523506
1040
1.75295164208391
1040
1.75199488295115
1040
1.831833429368892
1040
1.75199488295115
1071
        0
1071
        7
1070
     0
1070
     1
1071
        4
1040
1.9248734861665819
1040
1.7964868642961329
1040
1.872280190853103
1040
1.7964868642961329
1040
1.819695051224858
1040
1.535581057523506
1040
1.868232252430601
1040
1.535581057523506
1071
        0
1071
        7
1070
     0
1070
     1
1071
       10
1040
2.0280184369309668
1040
1.7964868642961329
1040
1.975436015864438
1040
1.7964868642961329
1040
1.9208282663057969
1040
1.535581057523506
1040
1.9734106873723249
1040
1.535581057523506
1040
2.007800493312323
1040
1.711537247219999
1040
2.074543902453271
1040
1.535581057523506
1040
2.125106432151127
1040
1.535581057523506
1040
2.1797114631480481
1040
1.7964868642961329
1040
2.1271290420815272
1040
1.7964868642961329
1040
2.0927392361415218
1040
1.6205306745996331
1071
        0
1071
        7
1070
     0
1070
     1
1071
       12
1040
2.40624105678934
1040
1.691319303601355
1040
2.266683690154554
1040
1.6913193036013521
1040
2.2788220682986049
1040
1.75199488295115
1040
2.4163541064412679
1040
1.75199488295115
1040
2.4284924845852869
1040
1.796486864296136
1040
2.236352696884008
1040
1.7964868642961329
1040
2.1837566830088022
1040
1.535581057523506
1040
2.3840005032403151
1040
1.535581057523506
1040
2.396128007137424
1040
1.578050428938103
1040
2.2424096524282291
1040
1.578050428938103
1040
2.2585932504330328
1040
1.64883905793982
1040
2.396128007137424
1040
1.64883905793982
1071
        0
1070
     0
1070
     1
1040
0.0051866775489356
1071
       10
1040
1.0210893621422481
1040
1.7662005436813659
1040
0.0
1040
1.0049643390798331
1040
1.6587696841680899
1040
0.0
1040
0.9780892392520534
1040
1.551338771606372
1040
0.0
1040
1.1984649841713271
1040
1.6157973085337161
1040
0.0
1040
1.1984649841713271
1040
1.6157973085337161
1040
0.0
1040
1.461840851980813
1040
1.6963704796928929
1040
0.0
1040
1.735966704470012
1040
1.782315177913206
1040
0.0
1040
1.870342203608913
1040
1.6963704796928929
1040
0.0
1040
2.0154676874275448
1040
1.7339712752176919
1040
0.0
1040
2.2627184400889671
1040
1.6802558454610601
1040
0.0
1002
}
  0
LINE
  5
29189
  8
0
 10
0.5408974289011334
 20
2.3632951159202511
 30
0.0
 11
0.5408974289011334
 21
1.166237723652342
 31
0.0
  0
LINE
  5
2918A
  8
0
 10
0.5408974289011334
 20
1.166237723652342
 30
0.0
 11
0.5408974289011334
 21
0.0212951159202533
 31
0.0
  0
LINE
  5
2918B
  8
TITLE
 10
0.8872936218116009
 20
1.5982792468036791
 30
0.0
 11
1.093594397587331
 21
1.5982792468036791
 31
0.0
  0
LINE
  5
2918C
  8
TITLE
 10
1.057181981716933
 20
1.535581057523506
 30
0.0
 11
0.8529038158716026
 21
1.535581057523506
 31
0.0
  0
LINE
  5
2918D
  8
TITLE
 10
0.8529038158716026
 20
1.535581057523506
 30
0.0
 11
0.8872936218116009
 21
1.5982792468036791
 31
0.0
  0
LINE
  5
2918E
  8
TITLE
 10
1.465746469092817
 20
1.578050428938103
 30
0.0
 11
1.6053038357275931
 21
1.578050428938103
 31
0.0
  0
LINE
  5
2918F
  8
TITLE
 10
1.593165457583559
 20
1.535581057523506
 30
0.0
 11
1.405070889743022
 21
1.535581057523506
 31
0.0
  0
LINE
  5
29190
  8
TITLE
 10
1.51226377892992
 20
1.7964868642961329
 30
0.0
 11
1.465746469092817
 21
1.578050428938103
 31
0.0
  0
LINE
  5
29191
  8
TITLE
 10
1.3322596508109219
 20
1.7964868642961329
 30
0.0
 11
1.3727064122951509
 21
1.535581057523506
 31
0.0
  0
LINE
  5
29192
  8
TITLE
 10
1.405070889743022
 20
1.535581057523506
 30
0.0
 11
1.459678639301671
 21
1.7964868642961329
 31
0.0
  0
LINE
  5
29193
  8
TITLE
 10
1.1259480007882661
 20
1.535581057523506
 30
0.0
 11
1.267527977353434
 21
1.7964868642961329
 31
0.0
  0
LINE
  5
29194
  8
TITLE
 10
1.314053442875742
 20
1.5922114170125301
 30
0.0
 11
1.212920227794793
 21
1.5922114170125301
 31
0.0
  0
LINE
  5
29195
  8
TITLE
 10
1.212920227794793
 20
1.5922114170125301
 30
0.0
 11
1.1846118444546141
 21
1.535581057523506
 31
0.0
  0
LINE
  5
29196
  8
TITLE
 10
1.093594397587331
 20
1.5982792468036791
 30
0.0
 11
1.057181981716933
 21
1.535581057523506
 31
0.0
  0
LINE
  5
29197
  8
TITLE
 10
1.1846118444546141
 20
1.535581057523506
 30
0.0
 11
1.1259480007882661
 21
1.535581057523506
 31
0.0
  0
LINE
  5
29198
  8
TITLE
 10
1.3727064122951509
 20
1.535581057523506
 30
0.0
 11
1.322143882597274
 21
1.535581057523506
 31
0.0
  0
LINE
  5
29199
  8
TITLE
 10
1.322143882597274
 20
1.535581057523506
 30
0.0
 11
1.314053442875742
 21
1.5922114170125301
 31
0.0
  0
LINE
  5
2919A
  8
TITLE
 10
0.9054889554998588
 20
1.6346807884271291
 30
0.0
 11
0.9418986528085078
 21
1.697389851954239
 31
0.0
  0
LINE
  5
2919B
  8
TITLE
 10
1.1117978869607861
 20
1.6346807884271291
 30
0.0
 11
0.9054889554998588
 21
1.6346807884271291
 31
0.0
  0
LINE
  5
2919C
  8
TITLE
 10
1.148199428584231
 20
1.697389851954239
 30
0.0
 11
1.1117978869607861
 21
1.6346807884271291
 31
0.0
  0
LINE
  5
2919D
  8
TITLE
 10
0.9601048607437014
 20
1.7337886750159559
 30
0.0
 11
0.9924611825063784
 21
1.7964868642961329
 31
0.0
  0
LINE
  5
2919E
  8
TITLE
 10
0.9418986528085078
 20
1.697389851954239
 30
0.0
 11
1.148199428584231
 21
1.697389851954239
 31
0.0
  0
LINE
  5
2919F
  8
TITLE
 10
1.1664056365194171
 20
1.7337886750159559
 30
0.0
 11
0.9601048607437014
 21
1.7337886750159559
 31
0.0
  0
LINE
  5
291A0
  8
TITLE
 10
1.198761958282101
 20
1.7964868642961329
 30
0.0
 11
1.1664056365194171
 21
1.7337886750159559
 31
0.0
  0
LINE
  5
291A1
  8
TITLE
 10
0.9924611825063784
 20
1.7964868642961329
 30
0.0
 11
1.198761958282101
 21
1.7964868642961329
 31
0.0
  0
LINE
  5
291A2
  8
TITLE
 10
1.293824625010159
 20
1.7418818332992221
 30
0.0
 11
1.235171655590743
 21
1.6346807884271291
 31
0.0
  0
LINE
  5
291A3
  8
TITLE
 10
1.235171655590743
 20
1.6346807884271291
 30
0.0
 11
1.3079856130845859
 21
1.6346807884271291
 31
0.0
  0
LINE
  5
291A4
  8
TITLE
 10
1.267527977353434
 20
1.7964868642961329
 30
0.0
 11
1.3322596508109219
 21
1.7964868642961329
 31
0.0
  0
LINE
  5
291A5
  8
TITLE
 10
1.3079856130845859
 20
1.6346807884271291
 30
0.0
 11
1.293824625010159
 21
1.7418818332992221
 31
0.0
  0
LINE
  5
291A6
  8
TITLE
 10
1.459678639301671
 20
1.7964868642961329
 30
0.0
 11
1.51226377892992
 21
1.7964868642961329
 31
0.0
  0
LINE
  5
291A7
  8
TITLE
 10
2.0280184369309668
 20
1.7964868642961329
 30
0.0
 11
2.0927392361415218
 21
1.62053067459964
 31
0.0
  0
LINE
  5
291A8
  8
TITLE
 10
2.0927392361415218
 20
1.62053067459964
 30
0.0
 11
2.1271290420815201
 21
1.7964868642961329
 31
0.0
  0
LINE
  5
291A9
  8
TITLE
 10
1.9208282663057969
 20
1.535581057523506
 30
0.0
 11
1.975436015864438
 21
1.7964868642961329
 31
0.0
  0
LINE
  5
291AA
  8
TITLE
 10
2.074543902453271
 20
1.535581057523506
 30
0.0
 11
2.0078004933123159
 21
1.711537247219995
 31
0.0
  0
LINE
  5
291AB
  8
TITLE
 10
2.0078004933123159
 20
1.711537247219995
 30
0.0
 11
1.9734106873723249
 21
1.535581057523506
 31
0.0
  0
LINE
  5
291AC
  8
TITLE
 10
2.1797114631480481
 20
1.7964868642961329
 30
0.0
 11
2.125106432151127
 21
1.535581057523506
 31
0.0
  0
LINE
  5
291AD
  8
TITLE
 10
1.9248734861665711
 20
1.7964868642961329
 30
0.0
 11
1.868232252430601
 21
1.535581057523506
 31
0.0
  0
LINE
  5
291AE
  8
TITLE
 10
1.6578862567941139
 20
1.535581057523506
 30
0.0
 11
1.702391830947771
 21
1.75199488295115
 31
0.0
  0
LINE
  5
291AF
  8
TITLE
 10
1.75295164208391
 20
1.75199488295115
 30
0.0
 11
1.7084596607389171
 21
1.535581057523506
 31
0.0
  0
LINE
  5
291B0
  8
TITLE
 10
1.8196950512248511
 20
1.535581057523506
 30
0.0
 11
1.872280190853103
 21
1.7964868642961329
 31
0.0
  0
LINE
  5
291B1
  8
TITLE
 10
1.7084596607389171
 20
1.535581057523506
 30
0.0
 11
1.6578862567941139
 21
1.535581057523506
 31
0.0
  0
LINE
  5
291B2
  8
TITLE
 10
1.6053038357275931
 20
1.578050428938103
 30
0.0
 11
1.593165457583559
 21
1.535581057523506
 31
0.0
  0
LINE
  5
291B3
  8
TITLE
 10
1.868232252430601
 20
1.535581057523506
 30
0.0
 11
1.8196950512248511
 21
1.535581057523506
 31
0.0
  0
LINE
  5
291B4
  8
TITLE
 10
1.9734106873723249
 20
1.535581057523506
 30
0.0
 11
1.9208282663057969
 21
1.535581057523506
 31
0.0
  0
LINE
  5
291B5
  8
TITLE
 10
2.125106432151127
 20
1.535581057523506
 30
0.0
 11
2.074543902453271
 21
1.535581057523506
 31
0.0
  0
LINE
  5
291B6
  8
TITLE
 10
1.872280190853103
 20
1.7964868642961329
 30
0.0
 11
1.9248734861665711
 21
1.7964868642961329
 31
0.0
  0
LINE
  5
291B7
  8
TITLE
 10
1.83992386909043
 20
1.7964868642961329
 30
0.0
 11
1.831833429368892
 21
1.75199488295115
 31
0.0
  0
LINE
  5
291B8
  8
TITLE
 10
1.831833429368892
 20
1.75199488295115
 30
0.0
 11
1.75295164208391
 21
1.75199488295115
 31
0.0
  0
LINE
  5
291B9
  8
TITLE
 10
1.702391830947771
 20
1.75199488295115
 30
0.0
 11
1.6295778734539359
 21
1.75199488295115
 31
0.0
  0
LINE
  5
291BA
  8
TITLE
 10
1.6295778734539359
 20
1.75199488295115
 30
0.0
 11
1.6356457032450891
 21
1.7964868642961329
 31
0.0
  0
LINE
  5
291BB
  8
TITLE
 10
1.6356457032450891
 20
1.7964868642961329
 30
0.0
 11
1.83992386909043
 21
1.7964868642961329
 31
0.0
  0
LINE
  5
291BC
  8
TITLE
 10
1.975436015864438
 20
1.7964868642961329
 30
0.0
 11
2.0280184369309668
 21
1.7964868642961329
 31
0.0
  0
LINE
  5
291BD
  8
TITLE
 10
2.1271290420815201
 20
1.7964868642961329
 30
0.0
 11
2.1797114631480481
 21
1.7964868642961329
 31
0.0
  0
LINE
  5
291BE
  8
0
 10
4.2708974289011286
 20
2.5062951159202558
 30
0.0
 11
4.2708974289011286
 21
1.166401072136775
 31
0.0
  0
LINE
  5
291BF
  8
0
 10
4.2708974289011286
 20
0.7963145477169819
 30
0.0
 11
4.2708974289011286
 21
0.0212951159202533
 31
0.0
  0
INSERT
  5
291C0
  8
0
  2
*U7
 10
0.0
 20
0.0
 30
0.0
  0
LINE
  5
291C1
  8
TITLE
 10
2.5720950710808479
 20
1.6589548261534699
 30
0.0
 11
2.6347932603610249
 21
1.535581057523506
 31
0.0
  0
LINE
  5
291C2
  8
TITLE
 10
2.5720950710808479
 20
1.6589548261534699
 30
0.0
 11
2.6347932603610249
 21
1.535581057523506
 31
0.0
  0
LINE
  5
291C3
  8
TITLE
 10
2.2585932504330328
 20
1.64883905793982
 30
0.0
 11
2.2424096524282291
 21
1.578050428938103
 31
0.0
  0
LINE
  5
291C4
  8
TITLE
 10
2.3981506170678091
 20
1.535581057523506
 30
0.0
 11
2.5134421016614432
 21
1.667045265875009
 31
0.0
  0
LINE
  5
291C5
  8
TITLE
 10
2.3981506170678091
 20
1.535581057523506
 30
0.0
 11
2.5134421016614432
 21
1.667045265875009
 31
0.0
  0
INSERT
  5
291C6
  8
0
  6
CONTINUOUS
  2
*U8
 10
0.0
 20
0.0
 30
0.0
1001
ACAD
1002
{
1000
R14_HATCH_DATA
1000
291C6
1011
1.0
1021
0.0
1031
0.0
1021
0.0
1031
0.0
1011
0.0
1021
0.0
1031
0.0
1021
1.0
1031
0.0
1011
0.0
1021
0.0
1031
0.0
1021
0.0
1031
1.0
1040
0.0
1010
0.0
1020
0.0
1030
1.0
1000
SOLID
1070
     1
1070
     0
1071
        1
1071
        7
1070
     0
1070
     1
1071
       23
1040
2.6914236198500521
1040
1.7964868642961329
1040
2.6246774921473799
1040
1.7964868642961329
1040
2.582293309372989
1040
1.7474087062082899
1040
2.579587427220833
1040
1.743828323501015
1040
2.5740415612826091
1040
1.73723581129496
1040
2.5680498512199992
1040
1.7297434551551389
1040
2.5619059017003241
1040
1.7230775417824711
1040
2.5553133894944748
1040
1.7155090659139409
1040
2.5478210333544982
1040
1.707492027359222
1040
2.5463965070056851
1040
1.7094412361227791
1040
2.5458718245909431
1040
1.710939163638435
1040
2.5457984234241202
1040
1.711537247219991
1040
2.5033290520095219
1040
1.796486864296136
1040
2.4487213024508701
1040
1.7964868642961329
1040
2.5134421016614432
1040
1.667045265875005
1040
2.3981506170678091
1040
1.535581057523506
1040
2.4628714162783711
1040
1.535581057523506
1040
2.499281113586949
1040
1.576027819007515
1040
2.50132218488223
1040
1.5781902138242621
1040
2.537705265140846
1040
1.618508064669262
1040
2.5781629008719911
1040
1.535581057523506
1040
2.6347932603610249
1040
1.535581057523506
1040
2.5720950710808479
1040
1.658954826153467
1071
        0
1070
     0
1070
     1
1040
0.0015733976332109
1071
        1
1040
2.5441817678800511
1040
1.6908720076871431
1040
0.0
1002
}
  0
LINE
  5
291C7
  8
TITLE
 10
2.5781629008720048
 20
1.535581057523506
 30
0.0
 11
2.5579340830064261
 21
1.574005209077334
 31
0.0
  0
LINE
  5
291C8
  8
TITLE
 10
2.5781629008720048
 20
1.535581057523506
 30
0.0
 11
2.5377052651408389
 21
1.618508064669256
 31
0.0
  0
LINE
  5
291C9
  8
TITLE
 10
2.5579340830064261
 20
1.574005209077334
 30
0.0
 11
2.5472963509397699
 21
1.5963300380401231
 31
0.0
  0
LINE
  5
291CA
  8
TITLE
 10
2.2424096524282291
 20
1.578050428938103
 30
0.0
 11
2.396128007137416
 21
1.578050428938103
 31
0.0
  0
LINE
  5
291CB
  8
TITLE
 10
2.5402525574859669
 20
1.611015708529286
 30
0.0
 11
2.5377052651408389
 21
1.618508064669256
 31
0.0
  0
LINE
  5
291CC
  8
TITLE
 10
2.5377052651408389
 20
1.618508064669256
 30
0.0
 11
2.5295468613759509
 21
1.6092921403896829
 31
0.0
  0
LINE
  5
291CD
  8
TITLE
 10
2.5295468613759509
 20
1.6092921403896829
 30
0.0
 11
2.5168892379406351
 21
1.594682589629085
 31
0.0
  0
LINE
  5
291CE
  8
TITLE
 10
2.5168892379406351
 20
1.594682589629085
 30
0.0
 11
2.4992811135870201
 21
1.5760278190077179
 31
0.0
  0
LINE
  5
291CF
  8
TITLE
 10
2.4628714162783711
 20
1.535581057523506
 30
0.0
 11
2.3981506170678091
 21
1.535581057523506
 31
0.0
  0
LINE
  5
291D0
  8
TITLE
 10
2.4628714162783711
 20
1.535581057523506
 30
0.0
 11
2.3981506170678091
 21
1.535581057523506
 31
0.0
  0
LINE
  5
291D1
  8
TITLE
 10
2.5377052651408389
 20
1.618508064669256
 30
0.0
 11
2.4628714162783711
 21
1.535581057523506
 31
0.0
  0
LINE
  5
291D2
  8
TITLE
 10
2.4992811135870201
 20
1.5760278190077179
 30
0.0
 11
2.4628714162783711
 21
1.535581057523506
 31
0.0
  0
LINE
  5
291D3
  8
TITLE
 10
2.396128007137416
 20
1.578050428938103
 30
0.0
 11
2.3840005032403151
 21
1.535581057523506
 31
0.0
  0
LINE
  5
291D4
  8
TITLE
 10
2.5472963509397699
 20
1.5963300380401231
 30
0.0
 11
2.5402525574859669
 21
1.611015708529286
 31
0.0
  0
LINE
  5
291D5
  8
TITLE
 10
2.6347932603610249
 20
1.535581057523506
 30
0.0
 11
2.5781629008720048
 21
1.535581057523506
 31
0.0
  0
LINE
  5
291D6
  8
TITLE
 10
2.6347932603610249
 20
1.535581057523506
 30
0.0
 11
2.5781629008720048
 21
1.535581057523506
 31
0.0
  0
LINE
  5
291D7
  8
TITLE
 10
2.5553133894944611
 20
1.715509065913932
 30
0.0
 11
2.5619059017003671
 21
1.7230775417824711
 31
0.0
  0
LINE
  5
291D8
  8
TITLE
 10
2.5478210333544982
 20
1.707492027359222
 30
0.0
 11
2.6246774921473799
 21
1.7964868642961329
 31
0.0
  0
LINE
  5
291D9
  8
TITLE
 10
2.5463965070056771
 20
1.7094412361227791
 30
0.0
 11
2.5478210333544982
 21
1.707492027359222
 31
0.0
  0
LINE
  5
291DA
  8
TITLE
 10
2.5478210333544982
 20
1.707492027359222
 30
0.0
 11
2.5553133894944611
 21
1.715509065913932
 31
0.0
  0
LINE
  5
291DB
  8
TITLE
 10
2.236352696884008
 20
1.7964868642961329
 30
0.0
 11
2.4284924845852869
 21
1.7964868642961329
 31
0.0
  0
LINE
  5
291DC
  8
TITLE
 10
2.4163541064412679
 20
1.75199488295115
 30
0.0
 11
2.2788220682986049
 21
1.75199488295115
 31
0.0
  0
LINE
  5
291DD
  8
TITLE
 10
2.266683690154554
 20
1.691319303601355
 30
0.0
 11
2.40624105678934
 21
1.691319303601355
 31
0.0
  0
LINE
  5
291DE
  8
TITLE
 10
2.396128007137416
 20
1.64883905793982
 30
0.0
 11
2.2585932504330328
 21
1.64883905793982
 31
0.0
  0
LINE
  5
291DF
  8
TITLE
 10
2.2788220682986049
 20
1.75199488295115
 30
0.0
 11
2.266683690154554
 21
1.691319303601355
 31
0.0
  0
LINE
  5
291E0
  8
TITLE
 10
2.4487213024508701
 20
1.7964868642961329
 30
0.0
 11
2.5033290520095148
 21
1.7964868642961329
 31
0.0
  0
LINE
  5
291E1
  8
TITLE
 10
2.5134421016614432
 20
1.667045265875009
 30
0.0
 11
2.4487213024508701
 21
1.7964868642961329
 31
0.0
  0
LINE
  5
291E2
  8
TITLE
 10
2.5033290520095148
 20
1.7964868642961329
 30
0.0
 11
2.5457984234241202
 21
1.711537247219991
 31
0.0
  0
LINE
  5
291E3
  8
TITLE
 10
2.5134421016614432
 20
1.667045265875009
 30
0.0
 11
2.4487213024508701
 21
1.7964868642961329
 31
0.0
  0
LINE
  5
291E4
  8
TITLE
 10
2.4487213024508701
 20
1.7964868642961329
 30
0.0
 11
2.5033290520095148
 21
1.7964868642961329
 31
0.0
  0
LINE
  5
291E5
  8
TITLE
 10
2.5033290520095148
 20
1.7964868642961329
 30
0.0
 11
2.5276030897358721
 21
1.747949663090375
 31
0.0
  0
LINE
  5
291E6
  8
TITLE
 10
2.5276030897358721
 20
1.747949663090375
 30
0.0
 11
2.5296256996662438
 21
1.744353005915781
 31
0.0
  0
LINE
  5
291E7
  8
TITLE
 10
2.5296256996662438
 20
1.744353005915781
 30
0.0
 11
2.5356908108956691
 21
1.732665909019653
 31
0.0
  0
LINE
  5
291E8
  8
TITLE
 10
2.5356908108956691
 20
1.732665909019653
 30
0.0
 11
2.5457984234241202
 21
1.711537247219995
 31
0.0
  0
LINE
  5
291E9
  8
TITLE
 10
2.5457984234241202
 20
1.711537247219995
 30
0.0
 11
2.5458718245909431
 21
1.710939163638427
 31
0.0
  0
LINE
  5
291EA
  8
TITLE
 10
2.4284924845852869
 20
1.7964868642961329
 30
0.0
 11
2.4163541064412679
 21
1.75199488295115
 31
0.0
  0
LINE
  5
291EB
  8
TITLE
 10
2.40624105678934
 20
1.691319303601355
 30
0.0
 11
2.396128007137416
 21
1.64883905793982
 31
0.0
  0
LINE
  5
291EC
  8
TITLE
 10
2.5457984234241202
 20
1.711537247219991
 30
0.0
 11
2.5478210333544982
 21
1.707492027359222
 31
0.0
  0
LINE
  5
291ED
  8
TITLE
 10
2.5458718245909431
 20
1.710939163638427
 30
0.0
 11
2.5463965070056771
 21
1.7094412361227791
 31
0.0
  0
INSERT
  5
291EE
  8
0
  2
*U9
 10
0.0
 20
0.0
 30
0.0
  0
LINE
  5
291EF
  8
TITLE
 10
2.6246774921473799
 20
1.7964868642961329
 30
0.0
 11
2.6914236198500521
 21
1.7964868642961329
 31
0.0
  0
LINE
  5
291F0
  8
TITLE
 10
2.6246774921473799
 20
1.7964868642961329
 30
0.0
 11
2.6914236198500521
 21
1.7964868642961329
 31
0.0
  0
LINE
  5
291F1
  8
TITLE
 10
2.5740415612826579
 20
1.7372358112951549
 30
0.0
 11
2.5795874272208179
 21
1.7438283235010481
 31
0.0
  0
LINE
  5
291F2
  8
TITLE
 10
2.5795874272208179
 20
1.7438283235010481
 30
0.0
 11
2.5842307306631471
 21
1.749972273020761
 31
0.0
  0
LINE
  5
291F3
  8
TITLE
 10
2.5842307306631471
 20
1.749972273020761
 30
0.0
 11
2.6246774921473799
 21
1.7964868642961329
 31
0.0
  0
LINE
  5
291F4
  8
TITLE
 10
2.5619059017003671
 20
1.7230775417824711
 30
0.0
 11
2.5680498512200698
 21
1.7297434551551889
 31
0.0
  0
LINE
  5
291F5
  8
TITLE
 10
2.6914236198500521
 20
1.7964868642961329
 30
0.0
 11
2.5720950710808479
 21
1.6589548261534699
 31
0.0
  0
LINE
  5
291F6
  8
TITLE
 10
2.6914236198500521
 20
1.7964868642961329
 30
0.0
 11
2.5720950710808479
 21
1.6589548261534699
 31
0.0
  0
LINE
  5
291F7
  8
TITLE
 10
2.5680498512200698
 20
1.7297434551551889
 30
0.0
 11
2.5740415612826579
 21
1.7372358112951549
 31
0.0
  0
POLYLINE
  5
291F8
  8
0
 66
     1
 10
0.0
 20
0.0
 30
0.0
 70
     1
 40
0.0040134408646155
 41
0.0040134408646155
  0
VERTEX
  5
2973A
  8
0
 10
2.7439125667025759
 20
1.828524065017171
 30
0.0
 42
1.0
  0
VERTEX
  5
2973B
  8
0
 10
2.8106697908388218
 20
1.828524065017171
 30
0.0
 42
1.0
  0
SEQEND
  5
2973C
  8
0
  0
INSERT
  5
291FB
  8
0
  2
*U10
 10
0.0
 20
0.0
 30
0.0
  0
INSERT
  5
291FC
  8
0
  2
*U11
 10
0.0
 20
0.0
 30
0.0
  0
INSERT
  5
291FD
  8
0
  2
*U12
 10
0.0
 20
0.0
 30
0.0
  0
LINE
  5
291FE
  8
0
 10
1.4233370165075909
 20
8.5862951159202545
 30
0.0
 11
1.0908974289011331
 21
8.5862951159202492
 31
0.0
  0
LINE
  5
291FF
  8
0
 10
0.5908974289011298
 20
5.5212951159202488
 30
0.0
 11
0.0208974289011295
 21
5.521295115920247
 31
0.0
  0
LINE
  5
29200
  8
0
 10
2.0540853565441952
 20
3.5527951159202522
 30
0.0
 11
2.0540853565441952
 21
7.4897951159202432
 31
0.0
  0
LINE
  5
29202
  8
0
 10
1.5860765872456031
 20
3.5712951159202491
 30
0.0
 11
1.5860765872456031
 21
7.5712951159202468
 31
0.0
  0
INSERT
  5
29205
  8
0
  2
*U13
 10
0.0
 20
0.0
 30
0.0
  0
INSERT
  5
29206
  8
0
  2
*U14
 10
0.0
 20
0.0
 30
0.0
  0
LINE
  5
29207
  8
0
 10
1.6580434687355881
 20
3.5212951159202488
 30
0.0
 11
1.5141097057556181
 21
3.5212951159202488
 31
0.0
  0
LINE
  5
29208
  8
0
 10
2.12605223803418
 20
3.5527951159202522
 30
0.0
 11
1.98211847505421
 21
3.5527951159202522
 31
0.0
  0
LINE
  5
29209
  8
0
 10
2.12605223803418
 20
3.9464951159202508
 30
0.0
 11
1.98211847505421
 21
3.9464951159202508
 31
0.0
  0
INSERT
  5
2920A
  8
0
  2
*U15
 10
0.0
 20
0.0
 30
0.0
  0
INSERT
  5
2920B
  8
0
  2
*U16
 10
0.0
 20
0.0
 30
0.0
  0
LINE
  5
2920C
  8
0
 10
2.12605223803418
 20
4.3401951159202499
 30
0.0
 11
1.98211847505421
 21
4.3401951159202499
 31
0.0
  0
INSERT
  5
2920D
  8
0
  2
*U17
 10
0.0
 20
0.0
 30
0.0
  0
POINT
  5
2920E
  8
0
 10
1.5860765872456031
 20
4.5212951159202488
 30
0.0
  0
LINE
  5
2920F
  8
0
 10
1.6580434687355881
 20
4.5212951159202488
 30
0.0
 11
1.5141097057556181
 21
4.5212951159202488
 31
0.0
  0
LINE
  5
29210
  8
0
 10
2.12605223803418
 20
4.7338951159202489
 30
0.0
 11
1.98211847505421
 21
4.7338951159202489
 31
0.0
  0
INSERT
  5
29211
  8
0
  2
*U18
 10
0.0
 20
0.0
 30
0.0
  0
INSERT
  5
29212
  8
0
  2
*U19
 10
0.0
 20
0.0
 30
0.0
  0
LINE
  5
29213
  8
0
 10
2.12605223803418
 20
5.127595115920248
 30
0.0
 11
1.98211847505421
 21
5.127595115920248
 31
0.0
  0
INSERT
  5
29214
  8
0
  2
*U20
 10
0.0
 20
0.0
 30
0.0
  0
INSERT
  5
29218
  8
0
  2
*U21
 10
0.0
 20
0.0
 30
0.0
  0
INSERT
  5
2921A
  8
0
  2
*U22
 10
0.0
 20
0.0
 30
0.0
  0
LINE
  5
2921D
  8
0
 10
2.12605223803418
 20
5.9149951159202461
 30
0.0
 11
1.98211847505421
 21
5.9149951159202461
 31
0.0
  0
INSERT
  5
2921E
  8
0
  2
*U23
 10
0.0
 20
0.0
 30
0.0
  0
POINT
  5
2921F
  8
0
 10
1.5860765872456031
 20
6.521295115920247
 30
0.0
  0
LINE
  5
29220
  8
0
 10
1.6580434687355881
 20
6.521295115920247
 30
0.0
 11
1.5141097057556181
 21
6.521295115920247
 31
0.0
  0
LINE
  5
29221
  8
0
 10
2.12605223803418
 20
6.308695115920246
 30
0.0
 11
1.98211847505421
 21
6.308695115920246
 31
0.0
  0
INSERT
  5
29222
  8
0
  2
*U24
 10
0.0
 20
0.0
 30
0.0
  0
INSERT
  5
29223
  8
0
  2
*U25
 10
0.0
 20
0.0
 30
0.0
  0
INSERT
  5
29226
  8
0
  2
*U26
 10
0.0
 20
0.0
 30
0.0
  0
INSERT
  5
29227
  8
0
  2
*U27
 10
0.0
 20
0.0
 30
0.0
  0
INSERT
  5
2922A
  8
0
  2
*U28
 10
0.0
 20
0.0
 30
0.0
  0
LINE
  5
2922B
  8
0
 10
2.12605223803418
 20
6.7023951159202451
 30
0.0
 11
1.98211847505421
 21
6.7023951159202451
 31
0.0
  0
LINE
  5
2922C
  8
0
 10
2.12605223803418
 20
7.0960951159202441
 30
0.0
 11
1.98211847505421
 21
7.0960951159202441
 31
0.0
  0
INSERT
  5
2922D
  8
0
  2
*U29
 10
0.0
 20
0.0
 30
0.0
  0
INSERT
  5
2922E
  8
0
  2
*U30
 10
0.0
 20
0.0
 30
0.0
  0
INSERT
  5
2922F
  8
0
  2
*U31
 10
0.0
 20
0.0
 30
0.0
  0
LINE
  5
29230
  8
0
 10
1.6580434687355881
 20
7.5712951159202468
 30
0.0
 11
1.5141097057556181
 21
7.5712951159202468
 31
0.0
  0
LINE
  5
29231
  8
0
 10
2.12605223803418
 20
7.4897951159202432
 30
0.0
 11
1.98211847505421
 21
7.4897951159202432
 31
0.0
  0
LINE
  5
29232
  8
0
 10
0.5408974289011369
 20
8.6792951159202563
 30
0.0
 11
0.5408974289011369
 21
10.32129511592025
 31
0.0
  0
LINE
  5
29233
  8
0
 10
3.4834974289011269
 20
9.1803569028390068
 30
0.0
 11
3.4834974289011269
 21
9.3242906658189764
 31
0.0
  0
LINE
  5
29234
  8
0
 10
3.0897974289011279
 20
9.1803569028390068
 30
0.0
 11
3.0897974289011279
 21
9.3242906658189764
 31
0.0
  0
LINE
  5
29235
  8
0
 10
2.6960974289011288
 20
9.1803569028390068
 30
0.0
 11
2.6960974289011288
 21
9.3242906658189764
 31
0.0
  0
LINE
  5
29236
  8
0
 10
2.3023974289011302
 20
9.1803569028390068
 30
0.0
 11
2.3023974289011302
 21
9.3242906658189764
 31
0.0
  0
INSERT
  5
29237
  8
0
  2
*U32
 10
0.0
 20
0.0
 30
0.0
  0
INSERT
  5
29238
  8
0
  2
*U33
 10
0.0
 20
0.0
 30
0.0
  0
INSERT
  5
29239
  8
0
  2
*U34
 10
0.0
 20
0.0
 30
0.0
  0
INSERT
  5
2923A
  8
0
  2
*U35
 10
0.0
 20
0.0
 30
0.0
  0
INSERT
  5
2923B
  8
0
  2
*U36
 10
0.0
 20
0.0
 30
0.0
  0
INSERT
  5
2923C
  8
0
  2
*U37
 10
0.0
 20
0.0
 30
0.0
  0
INSERT
  5
2923D
  8
0
  2
*U38
 10
0.0
 20
0.0
 30
0.0
  0
LINE
  5
2923E
  8
0
 10
2.270897428901125
 20
9.6990109351535718
 30
0.0
 11
2.270897428901125
 21
9.8429446981335413
 31
0.0
  0
INSERT
  5
2923F
  8
0
  2
*U39
 10
0.0
 20
0.0
 30
0.0
  0
LINE
  5
29240
  8
0
 10
3.270897428901125
 20
9.6990109351535718
 30
0.0
 11
3.270897428901125
 21
9.8429446981335413
 31
0.0
  0
POINT
  5
29241
  8
0
 10
3.270897428901125
 20
9.7709778166435566
 30
0.0
  0
LINE
  5
29242
  8
0
 10
4.270897428901125
 20
8.5862951159202545
 30
0.0
 11
4.270897428901125
 21
8.7829606607814625
 31
0.0
  0
LINE
  5
29247
  8
0
 10
4.6645974289011241
 20
9.1803569028390068
 30
0.0
 11
4.6645974289011241
 21
9.3242906658189764
 31
0.0
  0
LINE
  5
29248
  8
0
 10
4.270897428901125
 20
9.1803569028390068
 30
0.0
 11
4.270897428901125
 21
9.3242906658189764
 31
0.0
  0
LINE
  5
29249
  8
0
 10
3.877197428901126
 20
9.1803569028390068
 30
0.0
 11
3.877197428901126
 21
9.3242906658189764
 31
0.0
  0
INSERT
  5
2924A
  8
0
  2
*U40
 10
0.0
 20
0.0
 30
0.0
  0
INSERT
  5
2924B
  8
0
  2
*U41
 10
0.0
 20
0.0
 30
0.0
  0
LINE
  5
2924C
  8
0
 10
4.270897428901125
 20
8.9722022050722252
 30
0.0
 11
4.270897428901125
 21
9.0677436631213766
 31
0.0
  0
INSERT
  5
2924D
  8
0
  2
*U42
 10
0.0
 20
0.0
 30
0.0
  0
INSERT
  5
2924E
  8
0
  2
*U43
 10
0.0
 20
0.0
 30
0.0
  0
LINE
  5
2924F
  8
0
 10
4.270897428901125
 20
9.4091891300913577
 30
0.0
 11
4.270897428901125
 21
9.5047305881405091
 31
0.0
  0
LINE
  5
29250
  8
0
 10
4.270897428901125
 20
9.6990109351535718
 30
0.0
 11
4.270897428901125
 21
9.8429446981335413
 31
0.0
  0
LINE
  5
29251
  8
0
 10
5.8456974289011221
 20
9.1803569028390068
 30
0.0
 11
5.8456974289011221
 21
9.3242906658189764
 31
0.0
  0
LINE
  5
29252
  8
0
 10
5.451997428901123
 20
9.1803569028390068
 30
0.0
 11
5.451997428901123
 21
9.3242906658189764
 31
0.0
  0
LINE
  5
29253
  8
0
 10
5.0582974289011231
 20
9.1803569028390068
 30
0.0
 11
5.0582974289011231
 21
9.3242906658189764
 31
0.0
  0
INSERT
  5
29254
  8
0
  2
*U44
 10
0.0
 20
0.0
 30
0.0
  0
INSERT
  5
29255
  8
0
  2
*U45
 10
0.0
 20
0.0
 30
0.0
  0
INSERT
  5
29256
  8
0
  2
*U46
 10
0.0
 20
0.0
 30
0.0
  0
INSERT
  5
29257
  8
0
  2
*U47
 10
0.0
 20
0.0
 30
0.0
  0
LINE
  5
29258
  8
0
 10
5.270897428901125
 20
9.6990109351535718
 30
0.0
 11
5.270897428901125
 21
9.8429446981335413
 31
0.0
  0
POINT
  5
29259
  8
0
 10
5.270897428901125
 20
9.7709778166435566
 30
0.0
  0
LINE
  5
2925A
  8
0
 10
0.5408974289011369
 20
10.32129511592025
 30
0.0
 11
0.5408974289011334
 21
11.02129511592025
 31
0.0
  0
LINE
  5
2925B
  8
0
 10
4.270897428901125
 20
10.302639815087369
 30
0.0
 11
4.270897428901125
 21
11.02129511592025
 31
0.0
  0
LINE
  5
2925D
  8
TITLE
  6
ACAD_ISO07W100
 10
8.0208974289011401
 20
10.32129511592025
 30
0.0
 11
8.0208974289011241
 21
0.7212951159202508
 31
0.0
  0
LINE
  5
2925E
  8
0
 10
8.5208974289011241
 20
11.02129511592025
 30
0.0
 11
8.5208974289011241
 21
0.0212951159202515
 31
0.0
  0
LINE
  5
29261
  8
0
 10
8.0008974289011263
 20
8.6792951159202563
 30
0.0
 11
8.0008974289011334
 21
10.32129511592025
 31
0.0
  0
INSERT
  5
29262
  8
0
  2
*U48
 10
0.0
 20
0.0
 30
0.0
  0
INSERT
  5
29263
  8
0
  2
*U49
 10
0.0
 20
0.0
 30
0.0
  0
INSERT
  5
29265
  8
0
  2
*U50
 10
0.0
 20
0.0
 30
0.0
  0
INSERT
  5
29266
  8
0
  2
*U51
 10
0.0
 20
0.0
 30
0.0
  0
LINE
  5
29268
  8
0
 10
7.9508974289011247
 20
5.5212951159202488
 30
0.0
 11
8.5208974289011312
 21
5.5212951159202488
 31
0.0
  0
LINE
  5
2926B
  8
0
 10
7.1684578412946669
 20
8.5862951159202545
 30
0.0
 11
7.5008974289011334
 21
8.5862951159202545
 31
0.0
  0
INSERT
  5
2926D
  8
0
  2
*U52
 10
0.0
 20
0.0
 30
0.0
  0
LINE
  5
2926E
  8
0
 10
6.2393974289011167
 20
9.1803569028390068
 30
0.0
 11
6.2393974289011167
 21
9.3242906658189764
 31
0.0
  0
INSERT
  5
2926F
  8
0
  2
*U53
 10
0.0
 20
0.0
 30
0.0
  0
INSERT
  5
29270
  8
0
  2
*U54
 10
0.0
 20
0.0
 30
0.0
  0
LINE
  5
29271
  8
0
 10
6.270897428901125
 20
9.6990109351535718
 30
0.0
 11
6.270897428901125
 21
9.8429446981335413
 31
0.0
  0
LINE
  5
29272
  8
0
 10
7.5008974289011192
 20
2.4562951159202582
 30
0.0
 11
1.4233370165075909
 21
2.4562951159202542
 31
0.0
  0
ARC
  5
29273
  8
0
 10
1.040897428901133
 20
2.9562951159202511
 30
0.0
 40
0.5
 50
180.0
 51
270.00000000000011
  0
LINE
  5
29274
  8
0
 10
0.5408974289011334
 20
8.0862951159202545
 30
0.0
 11
0.5408974289011334
 21
2.9562951159202511
 31
0.0
  0
ARC
  5
29275
  8
0
 10
1.040897428901133
 20
8.0862951159202545
 30
0.0
 40
0.5
 50
89.999999999999986
 51
180.0
  0
LINE
  5
29276
  8
0
 10
1.040897428901133
 20
8.5862951159202545
 30
0.0
 11
7.4508974289011318
 21
8.5862951159202545
 31
0.0
  0
ARC
  5
29277
  8
0
 10
7.5008974289011334
 20
8.0862951159202492
 30
0.0
 40
0.5
 50
360.0
 51
89.999999999999986
  0
LINE
  5
29278
  8
0
 10
8.0008974289011334
 20
8.0862951159202492
 30
0.0
 11
8.0008974289011192
 21
2.9562951159202568
 31
0.0
  0
ARC
  5
29279
  8
0
 10
7.5008974289011192
 20
2.9562951159202582
 30
0.0
 40
0.5
 50
270.00000000000011
 51
359.99999999999989
  0
LINE
  5
292F6
  8
0
 10
0.4478974289011326
 20
8.5862951159202545
 30
0.0
 11
0.0208974289011295
 21
8.5862951159202545
 31
0.0
  0
LINE
  5
292F8
  8
0
 10
1.4233370165075909
 20
2.4562951159202542
 30
0.0
 11
1.0408974289011601
 21
2.4562951159202511
 31
0.0
  0
LINE
  5
292FE
  8
0
 10
8.0008974289011263
 20
5.4587951159202532
 30
0.0
 11
8.0008974289011263
 21
5.4412951159202487
 31
0.0
  0
LINE
  5
292FF
  8
0
 10
0.5408974289011298
 20
5.4587951159202532
 30
0.0
 11
0.5408974289011298
 21
5.4412951159202487
 31
0.0
  0
LINE
  5
29300
  8
0
 10
7.8208974289011257
 20
5.5212951159202488
 30
0.0
 11
6.610256399213756
 21
5.5212951159202488
 31
0.0
  0
SOLID
  5
29302
  8
0
 10
7.8208974289011257
 20
5.551295115920249
 30
0.0
 11
7.8208974289011257
 21
5.4912951159202503
 31
0.0
 12
8.0008974289011263
 22
5.5212951159202488
 32
0.0
 13
8.0008974289011263
 23
5.5212951159202488
 33
0.0
  0
SOLID
  5
29303
  8
0
 10
0.7208974289011295
 20
5.551295115920249
 30
0.0
 11
0.7208974289011295
 21
5.4912951159202503
 31
0.0
 12
0.5408974289011298
 22
5.5212951159202488
 32
0.0
 13
0.5408974289011298
 23
5.5212951159202488
 33
0.0
  0
INSERT
  5
29304
  8
0
  2
*U55
 10
0.0
 20
0.0
 30
0.0
  0
LINE
  5
29307
  8
0
 10
0.7208974289011295
 20
5.5212951159202488
 30
0.0
 11
1.1747843109724689
 21
5.5212951159202488
 31
0.0
  0
LINE
  5
2930E
  8
0
 10
1.825327418200728
 20
5.5212951159202488
 30
0.0
 11
1.9616828567349811
 21
5.5212951159202488
 31
0.0
  0
LINE
  5
29310
  8
0
 10
2.2945026267899098
 20
5.5212951159202523
 30
0.0
 11
5.1702563992137591
 21
5.5212951159202488
 31
0.0
  0
LINE
  5
29317
  8
0
 10
0.4478974289011362
 20
2.4562951159202551
 30
0.0
 11
0.0208974289011295
 21
2.4562951159202542
 31
0.0
  0
LINE
  5
29320
  8
0
 10
8.0008974289011334
 20
10.32129511592025
 30
0.0
 11
8.0008974289011334
 21
11.02129511592025
 31
0.0
  0
LINE
  5
29324
  8
0
 10
8.0938974289011334
 20
8.5862951159202492
 30
0.0
 11
8.5208974289011241
 21
8.5862951159202492
 31
0.0
  0
LINE
  5
29326
  8
0
 10
8.0938974289011334
 20
2.4562951159202582
 30
0.0
 11
8.5208974289011241
 21
2.4562951159202582
 31
0.0
  0
LINE
  5
29327
  8
0
 10
4.333397428901125
 20
2.456295115920256
 30
0.0
 11
4.3508974289011269
 21
2.456295115920256
 31
0.0
  0
LINE
  5
29328
  8
0
 10
4.3333974289011286
 20
8.5862951159202545
 30
0.0
 11
4.3508974289011313
 21
8.5862951159202545
 31
0.0
  0
LINE
  5
29329
  8
0
 10
4.2708974289011286
 20
2.6362951159202561
 30
0.0
 11
4.2708974289011286
 21
3.772130643955963
 31
0.0
  0
LINE
  5
2932A
  8
0
 10
4.270897428901125
 20
8.5862951159202119
 30
0.0
 11
4.2708974289011321
 21
4.560702072527393
 31
0.0
  0
SOLID
  5
2932B
  8
0
 10
4.2408974289011283
 20
2.6362951159202561
 30
0.0
 11
4.3008974289011297
 21
2.6362951159202561
 31
0.0
 12
4.2708974289011286
 22
2.456295115920256
 32
0.0
 13
4.2708974289011286
 23
2.456295115920256
 33
0.0
  0
SOLID
  5
2932C
  8
0
 10
4.240897428901131
 20
8.4062951159202548
 30
0.0
 11
4.3008974289011341
 21
8.4062951159202548
 31
0.0
 12
4.2708974289011321
 22
8.5862951159202545
 32
0.0
 13
4.2708974289011321
 23
8.5862951159202545
 33
0.0
  0
INSERT
  5
2932D
  8
0
  2
*U56
 10
0.0
 20
0.0
 30
0.0
  0
LINE
  5
29332
  8
0
 10
8.0008974289011192
 20
2.3632951159202502
 30
0.0
 11
8.0008974289011192
 21
1.16623772365234
 31
0.0
  0
LINE
  5
29333
  8
0
 10
8.0008974289011192
 20
1.16623772365234
 30
0.0
 11
8.0008974289011192
 21
0.0212951159202515
 31
0.0
  0
INSERT
  5
29351
  8
0
  2
*U57
 10
0.0
 20
0.0
 30
0.0
  0
INSERT
  5
294D7
  8
0
  2
*U58
 10
0.0
 20
0.0
 30
0.0
  0
INSERT
  5
294D8
  8
0
  2
*U59
 10
0.0
 20
0.0
 30
0.0
  0
INSERT
  5
294D9
  8
0
  2
*U60
 10
0.0
 20
0.0
 30
0.0
  0
INSERT
  5
29595
  8
0
  2
*U61
 10
0.0
 20
0.0
 30
0.0
  0
LINE
  5
295E0
  8
0
 10
7.4108974289011327
 20
8.0862951159202492
 30
0.0
 11
7.5908974289011333
 21
8.0862951159202492
 31
0.0
  0
LINE
  5
295E1
  8
0
 10
7.5008974289011334
 20
7.9962951159202511
 30
0.0
 11
7.5008974289011334
 21
8.1762951159202508
 31
0.0
  0
LINE
  5
295E2
  8
0
 10
7.4108974289011327
 20
8.0862951159202581
 30
0.0
 11
7.5908974289011333
 21
8.0862951159202616
 31
0.0
  0
LINE
  5
295E3
  8
0
 10
7.500897428901129
 20
7.9962951159202582
 30
0.0
 11
7.500897428901129
 21
8.1762951159202615
 31
0.0
  0
ARC
  5
295E4
  8
0
  6
HIDDEN
 10
7.5008974289011334
 20
8.0862951159202492
 30
0.0
 40
0.5
 50
90.0
 51
0.0
  0
LINE
  5
295E5
  8
0
 10
6.7736698518139384
 20
7.3070124221006552
 30
0.0
 11
6.9536698518139382
 21
7.3070124221006552
 31
0.0
  0
LINE
  5
295E6
  8
0
 10
6.9536698518139382
 20
7.3070124221006552
 30
0.0
 11
7.1101144751577081
 21
7.529798320724157
 31
0.0
  0
SOLID
  5
295E7
  8
0
 10
7.0855631459578774
 20
7.5470387451540146
 30
0.0
 11
7.1346658043575379
 21
7.5125578962943003
 31
0.0
 12
7.2135570217368459
 22
7.6771062959231307
 32
0.0
 13
7.2135570217368459
 23
7.6771062959231307
 33
0.0
  0
INSERT
  5
295E8
  8
0
  2
*U62
 10
0.0
 20
0.0
 30
0.0
  0
INSERT
  5
295E9
  8
0
  2
*U63
 10
0.0
 20
0.0
 30
0.0
  0
ARC
  5
295EF
  8
0
  6
HIDDEN
 10
7.5008974289011192
 20
2.9562951159202582
 30
0.0
 40
0.5
 50
0.0
 51
270.0
  0
LINE
  5
295F0
  8
0
 10
7.410897428901122
 20
2.9562951159202582
 30
0.0
 11
7.5908974289011217
 21
2.9562951159202582
 31
0.0
  0
LINE
  5
295F1
  8
0
 10
7.5008974289011219
 20
2.8662951159202579
 30
0.0
 11
7.5008974289011219
 21
3.046295115920258
 31
0.0
  0
LINE
  5
295F2
  8
0
 10
7.410897428901122
 20
2.9562951159202648
 30
0.0
 11
7.5908974289011217
 21
2.9562951159202679
 31
0.0
  0
LINE
  5
295F3
  8
0
 10
7.5008974289011192
 20
2.866295115920265
 30
0.0
 11
7.5008974289011192
 21
3.0462951159202678
 31
0.0
  0
ARC
  5
295FD
  8
0
  6
HIDDEN
 10
1.040897428901137
 20
8.0862951159202634
 30
0.0
 40
0.5
 50
180.0
 51
90.0
  0
LINE
  5
295FE
  8
0
 10
1.1308974289011331
 20
8.0862951159202634
 30
0.0
 11
0.9508974289011336
 21
8.0862951159202634
 31
0.0
  0
LINE
  5
295FF
  8
0
 10
1.040897428901133
 20
8.1762951159202633
 30
0.0
 11
1.040897428901133
 21
7.9962951159202627
 31
0.0
  0
LINE
  5
29600
  8
0
 10
1.1308974289011331
 20
8.0862951159202563
 30
0.0
 11
0.9508974289011336
 21
8.0862951159202527
 31
0.0
  0
LINE
  5
29601
  8
0
 10
1.040897428901137
 20
8.1762951159202562
 30
0.0
 11
1.040897428901137
 21
7.996295115920252
 31
0.0
  0
ARC
  5
29613
  8
0
  6
HIDDEN
 10
1.040897428901133
 20
2.9562951159202511
 30
0.0
 40
0.5
 50
270.0
 51
180.0
  0
LINE
  5
2961C
  8
0
 10
0.9508974289011336
 20
2.9562951159202431
 30
0.0
 11
1.1308974289011331
 21
2.9562951159202431
 31
0.0
  0
LINE
  5
2961D
  8
0
 10
1.040897428901133
 20
2.8662951159202432
 30
0.0
 11
1.040897428901133
 21
3.046295115920242
 31
0.0
  0
LINE
  5
2961E
  8
0
 10
0.9508974289011336
 20
2.9562951159202502
 30
0.0
 11
1.1308974289011331
 21
2.9562951159202528
 31
0.0
  0
LINE
  5
2961F
  8
0
 10
1.040897428901129
 20
2.8662951159202499
 30
0.0
 11
1.040897428901129
 21
3.0462951159202531
 31
0.0
  0
ENDSEC
  0
EOF
